ISO-10303-21;
HEADER;
FILE_DESCRIPTION (( 'STEP AP214' ),
    '1' );
FILE_NAME ('BS1ISOF63 FULLVAC.STEP',
    '2025-12-09T15:55:27',
    ( '' ),
    ( '' ),
    'SwSTEP 2.0',
    'SolidWorks 2017',
    '' );
FILE_SCHEMA (( 'AUTOMOTIVE_DESIGN' ));
ENDSEC;

DATA;
#1 = CYLINDRICAL_SURFACE ( 'NONE', #88, 65.00000000000000000 ) ;
#2 = ADVANCED_FACE ( 'NONE', ( #246, #346 ), #127, .F. ) ;
#3 = EDGE_LOOP ( 'NONE', ( #188 ) ) ;
#4 = CARTESIAN_POINT ( 'NONE',  ( 0.0000000000000000000, -6.887295176859848500, 32.25344096639250300 ) ) ;
#5 = ORIENTED_EDGE ( 'NONE', *, *, #299, .T. ) ;
#6 = DIRECTION ( 'NONE',  ( -0.0000000000000000000, 1.000000000000000000, -0.0000000000000000000 ) ) ;
#7 = EDGE_CURVE ( 'NONE', #148, #148, #376, .T. ) ;
#8 = AXIS2_PLACEMENT_3D ( 'NONE', #186, #268, #361 ) ;
#9 = DIRECTION ( 'NONE',  ( 0.0000000000000000000, 1.000000000000000000, 0.0000000000000000000 ) ) ;
#10 = EDGE_CURVE ( 'NONE', #121, #121, #317, .T. ) ;
#11 = CARTESIAN_POINT ( 'NONE',  ( 0.0000000000000000000, -4.400000000000000400, 35.04999999999999700 ) ) ;
#12 = EDGE_LOOP ( 'NONE', ( #141 ) ) ;
#13 = DIRECTION ( 'NONE',  ( 0.0000000000000000000, 0.0000000000000000000, 1.000000000000000000 ) ) ;
#14 = EDGE_LOOP ( 'NONE', ( #56 ) ) ;
#15 = CARTESIAN_POINT ( 'NONE',  ( 0.0000000000000000000, -11.90000000000000000, 0.0000000000000000000 ) ) ;
#16 = EDGE_LOOP ( 'NONE', ( #147 ) ) ;
#17 = VERTEX_POINT ( 'NONE', #184 ) ;
#18 = FILL_AREA_STYLE_COLOUR ( '', #348 ) ;
#19 = DIRECTION ( 'NONE',  ( 0.0000000000000000000, 0.0000000000000000000, -1.000000000000000000 ) ) ;
#20 = DIRECTION ( 'NONE',  ( -0.0000000000000000000, 1.000000000000000000, -0.0000000000000000000 ) ) ;
#21 = ORIENTED_EDGE ( 'NONE', *, *, #362, .F. ) ;
#22 = CARTESIAN_POINT ( 'NONE',  ( 6.735557395310464700E-015, -11.90000000000000000, 50.50000000000000000 ) ) ;
#23 = VERTEX_POINT ( 'NONE', #265 ) ;
#24 = EDGE_LOOP ( 'NONE', ( #57 ) ) ;
#25 = FILL_AREA_STYLE_COLOUR ( '', #309 ) ;
#26 = AXIS2_PLACEMENT_3D ( 'NONE', #179, #216, #13 ) ;
#27 = FACE_BOUND ( 'NONE', #14, .T. ) ;
#28 = EDGE_CURVE ( 'NONE', #137, #137, #117, .T. ) ;
#29 = FACE_OUTER_BOUND ( 'NONE', #295, .T. ) ;
#30 = CARTESIAN_POINT ( 'NONE',  ( 55.00000000000000000, 0.09999999999999761900, -3.367778697655232400E-015 ) ) ;
#31 = EDGE_CURVE ( 'NONE', #169, #169, #144, .T. ) ;
#32 = FACE_BOUND ( 'NONE', #3, .T. ) ;
#33 = CARTESIAN_POINT ( 'NONE',  ( 35.04999999999999700, 0.09999999999999754900, 0.0000000000000000000 ) ) ;
#34 = VERTEX_POINT ( 'NONE', #84 ) ;
#35 = DIRECTION ( 'NONE',  ( 0.0000000000000000000, 1.000000000000000000, 0.0000000000000000000 ) ) ;
#36 = EDGE_LOOP ( 'NONE', ( #276 ) ) ;
#37 =( NAMED_UNIT ( * ) SI_UNIT ( $, .STERADIAN. ) SOLID_ANGLE_UNIT ( ) );
#38 = DIRECTION ( 'NONE',  ( 0.0000000000000000000, 0.0000000000000000000, 1.000000000000000000 ) ) ;
#39 = DIRECTION ( 'NONE',  ( -0.0000000000000000000, -1.000000000000000000, -0.0000000000000000000 ) ) ;
#40 = FACE_OUTER_BOUND ( 'NONE', #130, .T. ) ;
#41 = AXIS2_PLACEMENT_3D ( 'NONE', #243, #6, #378 ) ;
#42 = ORIENTED_EDGE ( 'NONE', *, *, #387, .F. ) ;
#43 = CARTESIAN_POINT ( 'NONE',  ( 0.0000000000000000000, -4.400000000000000400, 0.0000000000000000000 ) ) ;
#44 = APPLICATION_CONTEXT ( 'automotive_design' ) ;
#45 = FACE_BOUND ( 'NONE', #202, .T. ) ;
#46 = ADVANCED_FACE ( 'NONE', ( #126, #45, #158, #305, #280, #292 ), #366, .T. ) ;
#47 = DIRECTION ( 'NONE',  ( 0.0000000000000000000, 0.0000000000000000000, 1.000000000000000000 ) ) ;
#48 = VERTEX_POINT ( 'NONE', #107 ) ;
#49 = DIRECTION ( 'NONE',  ( 1.000000000000000000, 0.0000000000000000000, 0.0000000000000000000 ) ) ;
#50 = DIRECTION ( 'NONE',  ( 0.0000000000000000000, 1.000000000000000000, 0.0000000000000000000 ) ) ;
#51 = DIRECTION ( 'NONE',  ( 0.0000000000000000000, 0.0000000000000000000, 1.000000000000000000 ) ) ;
#52 = PRODUCT_DEFINITION ( 'UNKNOWN', '', #89, #229 ) ;
#53 = CARTESIAN_POINT ( 'NONE',  ( 0.0000000000000000000, -11.90000000000000000, -55.00000000000000000 ) ) ;
#54 = FACE_OUTER_BOUND ( 'NONE', #16, .T. ) ;
#55 = AXIS2_PLACEMENT_3D ( 'NONE', #213, #109, #321 ) ;
#56 = ORIENTED_EDGE ( 'NONE', *, *, #119, .F. ) ;
#57 = ORIENTED_EDGE ( 'NONE', *, *, #182, .T. ) ;
#58 = FACE_OUTER_BOUND ( 'NONE', #69, .T. ) ;
#59 = DIRECTION ( 'NONE',  ( 0.0000000000000000000, 0.0000000000000000000, 1.000000000000000000 ) ) ;
#60 = EDGE_LOOP ( 'NONE', ( #195 ) ) ;
#61 = FACE_OUTER_BOUND ( 'NONE', #344, .T. ) ;
#62 = CIRCLE ( 'NONE', #72, 4.499999999999997300 ) ;
#63 = FACE_BOUND ( 'NONE', #293, .T. ) ;
#64 = ORIENTED_EDGE ( 'NONE', *, *, #329, .F. ) ;
#65 = FACE_OUTER_BOUND ( 'NONE', #264, .T. ) ;
#66 = CARTESIAN_POINT ( 'NONE',  ( 0.0000000000000000000, -6.887295176859848500, 0.0000000000000000000 ) ) ;
#67 = CARTESIAN_POINT ( 'NONE',  ( 0.0000000000000000000, -4.399999999999999500, 30.10000000000058100 ) ) ;
#68 = EDGE_LOOP ( 'NONE', ( #258 ) ) ;
#69 = EDGE_LOOP ( 'NONE', ( #122 ) ) ;
#70 = FACE_OUTER_BOUND ( 'NONE', #318, .T. ) ;
#71 = CARTESIAN_POINT ( 'NONE',  ( 0.0000000000000000000, -6.300000000000012300, 31.89999999999999900 ) ) ;
#72 = AXIS2_PLACEMENT_3D ( 'NONE', #364, #82, #175 ) ;
#73 = CIRCLE ( 'NONE', #222, 4.499999999999997300 ) ;
#74 = CYLINDRICAL_SURFACE ( 'NONE', #307, 31.89999999999999900 ) ;
#75 = ORIENTED_EDGE ( 'NONE', *, *, #362, .T. ) ;
#76 = DIRECTION ( 'NONE',  ( 0.0000000000000000000, 0.0000000000000000000, -1.000000000000000000 ) ) ;
#77 = ORIENTED_EDGE ( 'NONE', *, *, #355, .F. ) ;
#78 = CARTESIAN_POINT ( 'NONE',  ( 0.0000000000000000000, 0.09999999999999592500, 0.0000000000000000000 ) ) ;
#79 = MECHANICAL_DESIGN_GEOMETRIC_PRESENTATION_REPRESENTATION (  '', ( #389 ), #314 ) ;
#80 = EDGE_CURVE ( 'NONE', #273, #273, #341, .T. ) ;
#81 = DIRECTION ( 'NONE',  ( 0.0000000000000000000, 0.0000000000000000000, 1.000000000000000000 ) ) ;
#82 = DIRECTION ( 'NONE',  ( -0.0000000000000000000, 1.000000000000000000, -0.0000000000000000000 ) ) ;
#83 = DIRECTION ( 'NONE',  ( 0.0000000000000000000, 0.0000000000000000000, 1.000000000000000000 ) ) ;
#84 = CARTESIAN_POINT ( 'NONE',  ( 0.0000000000000000000, 0.09999999999999939500, 35.04999999999999700 ) ) ;
#85 = VERTEX_POINT ( 'NONE', #233 ) ;
#86 =( NAMED_UNIT ( * ) PLANE_ANGLE_UNIT ( ) SI_UNIT ( $, .RADIAN. ) );
#87 = ADVANCED_FACE ( 'NONE', ( #139, #353 ), #379, .F. ) ;
#88 = AXIS2_PLACEMENT_3D ( 'NONE', #194, #9, #263 ) ;
#89 = PRODUCT_DEFINITION_FORMATION_WITH_SPECIFIED_SOURCE ( 'ANY', '', #187, .NOT_KNOWN. ) ;
#90 = AXIS2_PLACEMENT_3D ( 'NONE', #357, #272, #83 ) ;
#91 = VERTEX_POINT ( 'NONE', #112 ) ;
#92 = SHAPE_DEFINITION_REPRESENTATION ( #97, #190 ) ;
#93 = CARTESIAN_POINT ( 'NONE',  ( 0.0000000000000000000, -11.90000000000000000, 0.0000000000000000000 ) ) ;
#94 = ADVANCED_FACE ( 'NONE', ( #173, #143 ), #277, .F. ) ;
#95 = ORIENTED_EDGE ( 'NONE', *, *, #80, .F. ) ;
#96 = FILL_AREA_STYLE ('',( #25 ) ) ;
#97 = PRODUCT_DEFINITION_SHAPE ( 'NONE', 'NONE',  #52 ) ;
#98 = PRESENTATION_LAYER_ASSIGNMENT (  '', '', ( #389 ) ) ;
#99 = CLOSED_SHELL ( 'NONE', ( #46, #262, #231, #87, #128, #266, #322, #332, #2, #123, #271, #324, #237, #94 ) ) ;
#100 = DIRECTION ( 'NONE',  ( -0.0000000000000000000, -1.000000000000000000, -0.0000000000000000000 ) ) ;
#101 = FACE_OUTER_BOUND ( 'NONE', #340, .T. ) ;
#102 = ORIENTED_EDGE ( 'NONE', *, *, #7, .F. ) ;
#103 = CIRCLE ( 'NONE', #217, 31.89999999999999900 ) ;
#104 = CARTESIAN_POINT ( 'NONE',  ( 55.00000000000000000, -11.90000000000000000, -3.367778697655232400E-015 ) ) ;
#105 = CARTESIAN_POINT ( 'NONE',  ( 0.0000000000000000000, -7.554266525607623400, 0.0000000000000000000 ) ) ;
#106 = DIRECTION ( 'NONE',  ( -0.0000000000000000000, 1.000000000000000000, -0.0000000000000000000 ) ) ;
#107 = CARTESIAN_POINT ( 'NONE',  ( 0.0000000000000000000, -11.90000000000000000, 65.00000000000000000 ) ) ;
#108 =( NAMED_UNIT ( * ) PLANE_ANGLE_UNIT ( ) SI_UNIT ( $, .RADIAN. ) );
#109 = DIRECTION ( 'NONE',  ( -0.0000000000000000000, 1.000000000000000000, -0.0000000000000000000 ) ) ;
#110 = CYLINDRICAL_SURFACE ( 'NONE', #386, 4.499999999999997300 ) ;
#111 = ORIENTED_EDGE ( 'NONE', *, *, #28, .T. ) ;
#112 = CARTESIAN_POINT ( 'NONE',  ( 0.0000000000000000000, -7.554266525607623400, 31.89999999999999900 ) ) ;
#113 =( NAMED_UNIT ( * ) PLANE_ANGLE_UNIT ( ) SI_UNIT ( $, .RADIAN. ) );
#114 = DIRECTION ( 'NONE',  ( -0.0000000000000000000, 1.000000000000000000, -0.0000000000000000000 ) ) ;
#115 = PLANE ( 'NONE',  #381 ) ;
#116 = PRESENTATION_LAYER_ASSIGNMENT (  '', '', ( #235 ) ) ;
#117 = CIRCLE ( 'NONE', #196, 32.25344096639250300 ) ;
#118 = DIRECTION ( 'NONE',  ( -0.0000000000000000000, 1.000000000000000000, -0.0000000000000000000 ) ) ;
#119 = EDGE_CURVE ( 'NONE', #23, #23, #155, .T. ) ;
#120 = EDGE_LOOP ( 'NONE', ( #336 ) ) ;
#121 = VERTEX_POINT ( 'NONE', #67 ) ;
#122 = ORIENTED_EDGE ( 'NONE', *, *, #7, .T. ) ;
#123 = ADVANCED_FACE ( 'NONE', ( #157, #61 ), #74, .F. ) ;
#124 = DIRECTION ( 'NONE',  ( 0.0000000000000000000, -0.0000000000000000000, 1.000000000000000000 ) ) ;
#125 = ORIENTED_EDGE ( 'NONE', *, *, #304, .F. ) ;
#126 = FACE_BOUND ( 'NONE', #287, .T. ) ;
#127 = CONICAL_SURFACE ( 'NONE', #146, 31.89999999999999900, 0.4872955468994699100 ) ;
#128 = ADVANCED_FACE ( 'NONE', ( #149, #171 ), #115, .T. ) ;
#129 = FACE_OUTER_BOUND ( 'NONE', #138, .T. ) ;
#130 = EDGE_LOOP ( 'NONE', ( #257 ) ) ;
#131 = EDGE_LOOP ( 'NONE', ( #5 ) ) ;
#132 = CARTESIAN_POINT ( 'NONE',  ( 0.0000000000000000000, -6.699999999999522300, 0.0000000000000000000 ) ) ;
#133 = DIRECTION ( 'NONE',  ( 0.0000000000000000000, 0.0000000000000000000, 1.000000000000000000 ) ) ;
#134 = ORIENTED_EDGE ( 'NONE', *, *, #359, .T. ) ;
#135 = DIRECTION ( 'NONE',  ( 0.0000000000000000000, 0.0000000000000000000, -1.000000000000000000 ) ) ;
#136 = EDGE_LOOP ( 'NONE', ( #156 ) ) ;
#137 = VERTEX_POINT ( 'NONE', #4 ) ;
#138 = EDGE_LOOP ( 'NONE', ( #215 ) ) ;
#139 = FACE_OUTER_BOUND ( 'NONE', #226, .T. ) ;
#140 = CIRCLE ( 'NONE', #269, 4.499999999999997300 ) ;
#141 = ORIENTED_EDGE ( 'NONE', *, *, #10, .F. ) ;
#142 = MANIFOLD_SOLID_BREP ( 'Dégagement M83', #99 ) ;
#143 = FACE_OUTER_BOUND ( 'NONE', #358, .T. ) ;
#144 = CIRCLE ( 'NONE', #8, 30.10000000000058100 ) ;
#145 = CARTESIAN_POINT ( 'NONE',  ( 0.0000000000000000000, 0.09999999999999761900, -50.50000000000000000 ) ) ;
#146 = AXIS2_PLACEMENT_3D ( 'NONE', #223, #50, #288 ) ;
#147 = ORIENTED_EDGE ( 'NONE', *, *, #10, .T. ) ;
#148 = VERTEX_POINT ( 'NONE', #71 ) ;
#149 = FACE_OUTER_BOUND ( 'NONE', #136, .T. ) ;
#150 = AXIS2_PLACEMENT_3D ( 'NONE', #15, #316, #335 ) ;
#151 = AXIS2_PLACEMENT_3D ( 'NONE', #152, #260, #159 ) ;
#152 = CARTESIAN_POINT ( 'NONE',  ( 6.735557395310464700E-015, -11.90000000000000000, 55.00000000000000000 ) ) ;
#153 = FACE_OUTER_BOUND ( 'NONE', #256, .T. ) ;
#154 = EDGE_LOOP ( 'NONE', ( #326 ) ) ;
#155 = CIRCLE ( 'NONE', #41, 4.499999999999997300 ) ;
#156 = ORIENTED_EDGE ( 'NONE', *, *, #355, .T. ) ;
#157 = FACE_OUTER_BOUND ( 'NONE', #24, .T. ) ;
#158 = FACE_BOUND ( 'NONE', #68, .T. ) ;
#159 = DIRECTION ( 'NONE',  ( 0.0000000000000000000, 0.0000000000000000000, -1.000000000000000000 ) ) ;
#160 = DIRECTION ( 'NONE',  ( -0.0000000000000000000, -1.000000000000000000, -0.0000000000000000000 ) ) ;
#161 = CARTESIAN_POINT ( 'NONE',  ( 0.0000000000000000000, -6.300000000000012300, 0.0000000000000000000 ) ) ;
#162 = UNCERTAINTY_MEASURE_WITH_UNIT (LENGTH_MEASURE( 1.000000000000000100E-005 ), #369, 'distance_accuracy_value', 'NONE');
#163 = CARTESIAN_POINT ( 'NONE',  ( 6.735557395310464700E-015, 0.09999999999999754900, 55.00000000000000000 ) ) ;
#164 = FACE_BOUND ( 'NONE', #212, .T. ) ;
#165 = DIRECTION ( 'NONE',  ( -0.0000000000000000000, 1.000000000000000000, -0.0000000000000000000 ) ) ;
#166 = CIRCLE ( 'NONE', #252, 4.499999999999997300 ) ;
#167 = VERTEX_POINT ( 'NONE', #145 ) ;
#168 = EDGE_LOOP ( 'NONE', ( #177 ) ) ;
#169 = VERTEX_POINT ( 'NONE', #301 ) ;
#170 = DIRECTION ( 'NONE',  ( 0.0000000000000000000, 0.0000000000000000000, 1.000000000000000000 ) ) ;
#171 = FACE_BOUND ( 'NONE', #12, .T. ) ;
#172 = UNCERTAINTY_MEASURE_WITH_UNIT (LENGTH_MEASURE( 1.000000000000000100E-005 ), #224, 'distance_accuracy_value', 'NONE');
#173 = FACE_OUTER_BOUND ( 'NONE', #131, .T. ) ;
#174 = DIRECTION ( 'NONE',  ( 0.0000000000000000000, -0.0000000000000000000, 1.000000000000000000 ) ) ;
#175 = DIRECTION ( 'NONE',  ( 0.0000000000000000000, 0.0000000000000000000, 1.000000000000000000 ) ) ;
#176 = DIRECTION ( 'NONE',  ( 0.0000000000000000000, 1.000000000000000000, 0.0000000000000000000 ) ) ;
#177 = ORIENTED_EDGE ( 'NONE', *, *, #259, .T. ) ;
#178 = DIRECTION ( 'NONE',  ( 0.0000000000000000000, 1.000000000000000000, 0.0000000000000000000 ) ) ;
#179 = CARTESIAN_POINT ( 'NONE',  ( 0.0000000000000000000, -11.90000000000000000, 0.0000000000000000000 ) ) ;
#180 = CIRCLE ( 'NONE', #26, 31.89999999999999900 ) ;
#181 = AXIS2_PLACEMENT_3D ( 'NONE', #78, #225, #59 ) ;
#182 = EDGE_CURVE ( 'NONE', #91, #91, #103, .T. ) ;
#183 = ORIENTED_EDGE ( 'NONE', *, *, #201, .F. ) ;
#184 = CARTESIAN_POINT ( 'NONE',  ( -55.00000000000000000, -11.90000000000000000, -4.500000000000000900 ) ) ;
#185 = DIRECTION ( 'NONE',  ( 0.0000000000000000000, 0.0000000000000000000, 1.000000000000000000 ) ) ;
#186 = CARTESIAN_POINT ( 'NONE',  ( 0.0000000000000000000, -6.300000000000012300, 0.0000000000000000000 ) ) ;
#187 = PRODUCT ( 'BS1ISOF63 FULLVAC', 'BS1ISOF63 FULLVAC', '', ( #302 ) ) ;
#188 = ORIENTED_EDGE ( 'NONE', *, *, #31, .T. ) ;
#189 = VERTEX_POINT ( 'NONE', #11 ) ;
#190 = ADVANCED_BREP_SHAPE_REPRESENTATION ( 'BS1ISOF63 FULLVAC', ( #142, #388 ), #306 ) ;
#191 = CARTESIAN_POINT ( 'NONE',  ( 65.00000000000000000, -11.90000000000000000, 0.0000000000000000000 ) ) ;
#192 = CARTESIAN_POINT ( 'NONE',  ( 0.0000000000000000000, 0.09999999999999592500, 65.00000000000000000 ) ) ;
#193 = AXIS2_PLACEMENT_3D ( 'NONE', #132, #178, #185 ) ;
#194 = CARTESIAN_POINT ( 'NONE',  ( 0.0000000000000000000, -11.90000000000000000, 0.0000000000000000000 ) ) ;
#195 = ORIENTED_EDGE ( 'NONE', *, *, #119, .T. ) ;
#196 = AXIS2_PLACEMENT_3D ( 'NONE', #66, #176, #234 ) ;
#197 = SURFACE_STYLE_USAGE ( .BOTH. , #372 ) ;
#198 = CYLINDRICAL_SURFACE ( 'NONE', #350, 4.499999999999997300 ) ;
#199 = FACE_OUTER_BOUND ( 'NONE', #168, .T. ) ;
#200 = CARTESIAN_POINT ( 'NONE',  ( 0.0000000000000000000, -11.90000000000000000, -59.50000000000000000 ) ) ;
#201 = EDGE_CURVE ( 'NONE', #17, #17, #352, .T. ) ;
#202 = EDGE_LOOP ( 'NONE', ( #125 ) ) ;
#203 = VERTEX_POINT ( 'NONE', #22 ) ;
#204 = ORIENTED_EDGE ( 'NONE', *, *, #294, .T. ) ;
#205 = SURFACE_SIDE_STYLE ('',( #250 ) ) ;
#206 = DIRECTION ( 'NONE',  ( 0.0000000000000000000, 1.000000000000000000, 0.0000000000000000000 ) ) ;
#207 = CARTESIAN_POINT ( 'NONE',  ( 30.10000000000058100, -4.399999999999999500, 0.0000000000000000000 ) ) ;
#208 = DIRECTION ( 'NONE',  ( 0.0000000000000000000, 0.0000000000000000000, -1.000000000000000000 ) ) ;
#209 = ORIENTED_EDGE ( 'NONE', *, *, #255, .T. ) ;
#210 = SURFACE_STYLE_USAGE ( .BOTH. , #205 ) ;
#211 = DIRECTION ( 'NONE',  ( 0.0000000000000000000, 0.0000000000000000000, 1.000000000000000000 ) ) ;
#212 = EDGE_LOOP ( 'NONE', ( #281 ) ) ;
#213 = CARTESIAN_POINT ( 'NONE',  ( 0.0000000000000000000, 0.09999999999999754900, -55.00000000000000000 ) ) ;
#214 = MECHANICAL_DESIGN_GEOMETRIC_PRESENTATION_REPRESENTATION (  '', ( #235 ), #267 ) ;
#215 = ORIENTED_EDGE ( 'NONE', *, *, #304, .T. ) ;
#216 = DIRECTION ( 'NONE',  ( 0.0000000000000000000, 1.000000000000000000, 0.0000000000000000000 ) ) ;
#217 = AXIS2_PLACEMENT_3D ( 'NONE', #105, #363, #374 ) ;
#218 = DIRECTION ( 'NONE',  ( 0.0000000000000000000, -1.000000000000000000, -0.0000000000000000000 ) ) ;
#219 = DIRECTION ( 'NONE',  ( 0.0000000000000000000, 1.000000000000000000, 0.0000000000000000000 ) ) ;
#220 = DIRECTION ( 'NONE',  ( 0.0000000000000000000, 0.0000000000000000000, 1.000000000000000000 ) ) ;
#221 = EDGE_LOOP ( 'NONE', ( #21 ) ) ;
#222 = AXIS2_PLACEMENT_3D ( 'NONE', #53, #39, #19 ) ;
#223 = CARTESIAN_POINT ( 'NONE',  ( 0.0000000000000000000, -7.554266525607623400, 0.0000000000000000000 ) ) ;
#224 =( LENGTH_UNIT ( ) NAMED_UNIT ( * ) SI_UNIT ( .MILLI., .METRE. ) );
#225 = DIRECTION ( 'NONE',  ( 0.0000000000000000000, 1.000000000000000000, 0.0000000000000000000 ) ) ;
#226 = EDGE_LOOP ( 'NONE', ( #75 ) ) ;
#227 = AXIS2_PLACEMENT_3D ( 'NONE', #370, #274, #251 ) ;
#228 = PRODUCT_RELATED_PRODUCT_CATEGORY ( 'part', '', ( #187 ) ) ;
#229 = PRODUCT_DEFINITION_CONTEXT ( 'detailed design', #315, 'design' ) ;
#230 = CARTESIAN_POINT ( 'NONE',  ( -55.00000000000000000, -11.90000000000000000, -3.367778697655232400E-015 ) ) ;
#231 = ADVANCED_FACE ( 'NONE', ( #164, #63, #27, #297, #380, #285 ), #253, .T. ) ;
#232 = EDGE_LOOP ( 'NONE', ( #77 ) ) ;
#233 = CARTESIAN_POINT ( 'NONE',  ( 0.0000000000000000000, -11.90000000000000000, 31.89999999999999900 ) ) ;
#234 = DIRECTION ( 'NONE',  ( 0.0000000000000000000, 0.0000000000000000000, 1.000000000000000000 ) ) ;
#235 = STYLED_ITEM ( 'NONE', ( #371 ), #142 ) ;
#236 = FACE_OUTER_BOUND ( 'NONE', #331, .T. ) ;
#237 = ADVANCED_FACE ( 'NONE', ( #129, #279 ), #198, .F. ) ;
#238 = AXIS2_PLACEMENT_3D ( 'NONE', #390, #218, #208 ) ;
#239 = CARTESIAN_POINT ( 'NONE',  ( 55.00000000000000000, -11.90000000000000000, -4.500000000000000900 ) ) ;
#240 = FILL_AREA_STYLE ('',( #18 ) ) ;
#241 = EDGE_LOOP ( 'NONE', ( #111 ) ) ;
#242 =( LENGTH_UNIT ( ) NAMED_UNIT ( * ) SI_UNIT ( .MILLI., .METRE. ) );
#243 = CARTESIAN_POINT ( 'NONE',  ( 6.735557395310464700E-015, 0.09999999999999761900, 55.00000000000000000 ) ) ;
#244 = AXIS2_PLACEMENT_3D ( 'NONE', #191, #286, #76 ) ;
#245 = EDGE_LOOP ( 'NONE', ( #183 ) ) ;
#246 = FACE_OUTER_BOUND ( 'NONE', #241, .T. ) ;
#247 = DIRECTION ( 'NONE',  ( 0.0000000000000000000, 0.0000000000000000000, 1.000000000000000000 ) ) ;
#248 = CARTESIAN_POINT ( 'NONE',  ( 55.00000000000000000, 0.09999999999999754900, -3.367778697655232400E-015 ) ) ;
#249 = AXIS2_PLACEMENT_3D ( 'NONE', #93, #206, #38 ) ;
#250 = SURFACE_STYLE_FILL_AREA ( #240 ) ;
#251 = DIRECTION ( 'NONE',  ( 0.0000000000000000000, 0.0000000000000000000, 1.000000000000000000 ) ) ;
#252 = AXIS2_PLACEMENT_3D ( 'NONE', #104, #100, #135 ) ;
#253 = PLANE ( 'NONE',  #333 ) ;
#254 = CYLINDRICAL_SURFACE ( 'NONE', #303, 4.499999999999997300 ) ;
#255 = EDGE_CURVE ( 'NONE', #167, #167, #140, .T. ) ;
#256 = EDGE_LOOP ( 'NONE', ( #375 ) ) ;
#257 = ORIENTED_EDGE ( 'NONE', *, *, #31, .F. ) ;
#258 = ORIENTED_EDGE ( 'NONE', *, *, #294, .F. ) ;
#259 = EDGE_CURVE ( 'NONE', #367, #367, #62, .T. ) ;
#260 = DIRECTION ( 'NONE',  ( -0.0000000000000000000, -1.000000000000000000, -0.0000000000000000000 ) ) ;
#261 = TOROIDAL_SURFACE ( 'NONE', #193, 31.89999999999999900, 0.3999999999995102500 ) ;
#262 = ADVANCED_FACE ( 'NONE', ( #101, #29 ), #1, .T. ) ;
#263 = DIRECTION ( 'NONE',  ( 0.0000000000000000000, 0.0000000000000000000, 1.000000000000000000 ) ) ;
#264 = EDGE_LOOP ( 'NONE', ( #204 ) ) ;
#265 = CARTESIAN_POINT ( 'NONE',  ( 6.735557395310464700E-015, 0.09999999999999761900, 59.50000000000000000 ) ) ;
#266 = ADVANCED_FACE ( 'NONE', ( #54, #40 ), #298, .F. ) ;
#267 =( GEOMETRIC_REPRESENTATION_CONTEXT ( 3 ) GLOBAL_UNCERTAINTY_ASSIGNED_CONTEXT ( ( #320 ) ) GLOBAL_UNIT_ASSIGNED_CONTEXT ( ( #242, #86, #354 ) ) REPRESENTATION_CONTEXT ( 'NONE', 'WORKASPACE' ) );
#268 = DIRECTION ( 'NONE',  ( 0.0000000000000000000, 1.000000000000000000, 0.0000000000000000000 ) ) ;
#269 = AXIS2_PLACEMENT_3D ( 'NONE', #342, #106, #220 ) ;
#270 = AXIS2_PLACEMENT_3D ( 'NONE', #43, #377, #211 ) ;
#271 = ADVANCED_FACE ( 'NONE', ( #153, #199 ), #254, .F. ) ;
#272 = DIRECTION ( 'NONE',  ( 0.0000000000000000000, 1.000000000000000000, 0.0000000000000000000 ) ) ;
#273 = VERTEX_POINT ( 'NONE', #192 ) ;
#274 = DIRECTION ( 'NONE',  ( 0.0000000000000000000, 1.000000000000000000, 0.0000000000000000000 ) ) ;
#275 = DIRECTION ( 'NONE',  ( 0.0000000000000000000, 1.000000000000000000, 0.0000000000000000000 ) ) ;
#276 = ORIENTED_EDGE ( 'NONE', *, *, #387, .T. ) ;
#277 = CYLINDRICAL_SURFACE ( 'NONE', #55, 4.499999999999997300 ) ;
#278 = AXIS2_PLACEMENT_3D ( 'NONE', #161, #343, #47 ) ;
#279 = FACE_OUTER_BOUND ( 'NONE', #312, .T. ) ;
#280 = FACE_BOUND ( 'NONE', #36, .T. ) ;
#281 = ORIENTED_EDGE ( 'NONE', *, *, #255, .F. ) ;
#282 =( NAMED_UNIT ( * ) SI_UNIT ( $, .STERADIAN. ) SOLID_ANGLE_UNIT ( ) );
#283 = AXIS2_PLACEMENT_3D ( 'NONE', #230, #160, #328 ) ;
#284 = CIRCLE ( 'NONE', #270, 35.04999999999999700 ) ;
#285 = FACE_BOUND ( 'NONE', #221, .T. ) ;
#286 = DIRECTION ( 'NONE',  ( 0.0000000000000000000, -1.000000000000000000, -0.0000000000000000000 ) ) ;
#287 = EDGE_LOOP ( 'NONE', ( #311 ) ) ;
#288 = DIRECTION ( 'NONE',  ( 0.0000000000000000000, 0.0000000000000000000, 1.000000000000000000 ) ) ;
#289 = DIRECTION ( 'NONE',  ( 0.0000000000000000000, 1.000000000000000000, 0.0000000000000000000 ) ) ;
#290 = AXIS2_PLACEMENT_3D ( 'NONE', #349, #35, #51 ) ;
#291 = CIRCLE ( 'NONE', #227, 35.04999999999999700 ) ;
#292 = FACE_OUTER_BOUND ( 'NONE', #330, .T. ) ;
#293 = EDGE_LOOP ( 'NONE', ( #64 ) ) ;
#294 = EDGE_CURVE ( 'NONE', #203, #203, #356, .T. ) ;
#295 = EDGE_LOOP ( 'NONE', ( #95 ) ) ;
#296 = FACE_OUTER_BOUND ( 'NONE', #60, .T. ) ;
#297 = FACE_BOUND ( 'NONE', #120, .T. ) ;
#298 = CYLINDRICAL_SURFACE ( 'NONE', #150, 30.10000000000058100 ) ;
#299 = EDGE_CURVE ( 'NONE', #383, #383, #73, .T. ) ;
#300 = ORIENTED_EDGE ( 'NONE', *, *, #359, .F. ) ;
#301 = CARTESIAN_POINT ( 'NONE',  ( 0.0000000000000000000, -6.300000000000012300, 30.10000000000058100 ) ) ;
#302 = PRODUCT_CONTEXT ( 'NONE', #44, 'mechanical' ) ;
#303 = AXIS2_PLACEMENT_3D ( 'NONE', #365, #165, #382 ) ;
#304 = EDGE_CURVE ( 'NONE', #310, #310, #166, .T. ) ;
#305 = FACE_BOUND ( 'NONE', #245, .T. ) ;
#306 =( GEOMETRIC_REPRESENTATION_CONTEXT ( 3 ) GLOBAL_UNCERTAINTY_ASSIGNED_CONTEXT ( ( #172 ) ) GLOBAL_UNIT_ASSIGNED_CONTEXT ( ( #224, #113, #37 ) ) REPRESENTATION_CONTEXT ( 'NONE', 'WORKASPACE' ) );
#307 = AXIS2_PLACEMENT_3D ( 'NONE', #339, #275, #133 ) ;
#308 = ORIENTED_EDGE ( 'NONE', *, *, #80, .T. ) ;
#309 = COLOUR_RGB ( '',0.6470588235294118000, 0.6196078431372549200, 0.5882352941176470800 ) ;
#310 = VERTEX_POINT ( 'NONE', #239 ) ;
#311 = ORIENTED_EDGE ( 'NONE', *, *, #299, .F. ) ;
#312 = EDGE_LOOP ( 'NONE', ( #351 ) ) ;
#313 = SURFACE_STYLE_FILL_AREA ( #96 ) ;
#314 =( GEOMETRIC_REPRESENTATION_CONTEXT ( 3 ) GLOBAL_UNCERTAINTY_ASSIGNED_CONTEXT ( ( #162 ) ) GLOBAL_UNIT_ASSIGNED_CONTEXT ( ( #369, #108, #282 ) ) REPRESENTATION_CONTEXT ( 'NONE', 'WORKASPACE' ) );
#315 = APPLICATION_CONTEXT ( 'automotive_design' ) ;
#316 = DIRECTION ( 'NONE',  ( 0.0000000000000000000, 1.000000000000000000, 0.0000000000000000000 ) ) ;
#317 = CIRCLE ( 'NONE', #90, 30.10000000000058100 ) ;
#318 = EDGE_LOOP ( 'NONE', ( #360 ) ) ;
#319 = APPLICATION_PROTOCOL_DEFINITION ( 'draft international standard', 'automotive_design', 1998, #44 ) ;
#320 = UNCERTAINTY_MEASURE_WITH_UNIT (LENGTH_MEASURE( 1.000000000000000100E-005 ), #242, 'distance_accuracy_value', 'NONE');
#321 = DIRECTION ( 'NONE',  ( 0.0000000000000000000, 0.0000000000000000000, 1.000000000000000000 ) ) ;
#322 = ADVANCED_FACE ( 'NONE', ( #32, #236 ), #334, .T. ) ;
#323 = CIRCLE ( 'NONE', #249, 65.00000000000000000 ) ;
#324 = ADVANCED_FACE ( 'NONE', ( #65, #296 ), #110, .F. ) ;
#325 = CARTESIAN_POINT ( 'NONE',  ( 55.00000000000000000, 0.09999999999999761900, 4.499999999999993800 ) ) ;
#326 = ORIENTED_EDGE ( 'NONE', *, *, #182, .F. ) ;
#327 = CIRCLE ( 'NONE', #373, 4.499999999999997300 ) ;
#328 = DIRECTION ( 'NONE',  ( 0.0000000000000000000, 0.0000000000000000000, -1.000000000000000000 ) ) ;
#329 = EDGE_CURVE ( 'NONE', #337, #337, #327, .T. ) ;
#330 = EDGE_LOOP ( 'NONE', ( #300 ) ) ;
#331 = EDGE_LOOP ( 'NONE', ( #102 ) ) ;
#332 = ADVANCED_FACE ( 'NONE', ( #58, #70 ), #261, .F. ) ;
#333 = AXIS2_PLACEMENT_3D ( 'NONE', #33, #219, #174 ) ;
#334 = PLANE ( 'NONE',  #238 ) ;
#335 = DIRECTION ( 'NONE',  ( 0.0000000000000000000, 0.0000000000000000000, 1.000000000000000000 ) ) ;
#336 = ORIENTED_EDGE ( 'NONE', *, *, #259, .F. ) ;
#337 = VERTEX_POINT ( 'NONE', #325 ) ;
#338 = CARTESIAN_POINT ( 'NONE',  ( 0.0000000000000000000, 0.0000000000000000000, 0.0000000000000000000 ) ) ;
#339 = CARTESIAN_POINT ( 'NONE',  ( 0.0000000000000000000, -11.90000000000000000, 0.0000000000000000000 ) ) ;
#340 = EDGE_LOOP ( 'NONE', ( #134 ) ) ;
#341 = CIRCLE ( 'NONE', #181, 65.00000000000000000 ) ;
#342 = CARTESIAN_POINT ( 'NONE',  ( 0.0000000000000000000, 0.09999999999999761900, -55.00000000000000000 ) ) ;
#343 = DIRECTION ( 'NONE',  ( 0.0000000000000000000, 1.000000000000000000, 0.0000000000000000000 ) ) ;
#344 = EDGE_LOOP ( 'NONE', ( #42 ) ) ;
#345 = APPLICATION_PROTOCOL_DEFINITION ( 'draft international standard', 'automotive_design', 1998, #315 ) ;
#346 = FACE_BOUND ( 'NONE', #154, .T. ) ;
#347 = DIRECTION ( 'NONE',  ( 0.0000000000000000000, 0.0000000000000000000, 1.000000000000000000 ) ) ;
#348 = COLOUR_RGB ( '',0.6470588235294118000, 0.6196078431372549200, 0.5882352941176470800 ) ;
#349 = CARTESIAN_POINT ( 'NONE',  ( 0.0000000000000000000, -11.90000000000000000, 0.0000000000000000000 ) ) ;
#350 = AXIS2_PLACEMENT_3D ( 'NONE', #248, #20, #81 ) ;
#351 = ORIENTED_EDGE ( 'NONE', *, *, #329, .T. ) ;
#352 = CIRCLE ( 'NONE', #283, 4.499999999999997300 ) ;
#353 = FACE_OUTER_BOUND ( 'NONE', #232, .T. ) ;
#354 =( NAMED_UNIT ( * ) SI_UNIT ( $, .STERADIAN. ) SOLID_ANGLE_UNIT ( ) );
#355 = EDGE_CURVE ( 'NONE', #189, #189, #284, .T. ) ;
#356 = CIRCLE ( 'NONE', #151, 4.499999999999997300 ) ;
#357 = CARTESIAN_POINT ( 'NONE',  ( 0.0000000000000000000, -4.399999999999999500, 0.0000000000000000000 ) ) ;
#358 = EDGE_LOOP ( 'NONE', ( #209 ) ) ;
#359 = EDGE_CURVE ( 'NONE', #48, #48, #323, .T. ) ;
#360 = ORIENTED_EDGE ( 'NONE', *, *, #28, .F. ) ;
#361 = DIRECTION ( 'NONE',  ( 0.0000000000000000000, 0.0000000000000000000, 1.000000000000000000 ) ) ;
#362 = EDGE_CURVE ( 'NONE', #34, #34, #291, .T. ) ;
#363 = DIRECTION ( 'NONE',  ( 0.0000000000000000000, 1.000000000000000000, 0.0000000000000000000 ) ) ;
#364 = CARTESIAN_POINT ( 'NONE',  ( -55.00000000000000000, 0.09999999999999761900, -3.367778697655232400E-015 ) ) ;
#365 = CARTESIAN_POINT ( 'NONE',  ( -55.00000000000000000, 0.09999999999999754900, -3.367778697655232400E-015 ) ) ;
#366 = PLANE ( 'NONE',  #244 ) ;
#367 = VERTEX_POINT ( 'NONE', #384 ) ;
#368 = EDGE_LOOP ( 'NONE', ( #308 ) ) ;
#369 =( LENGTH_UNIT ( ) NAMED_UNIT ( * ) SI_UNIT ( .MILLI., .METRE. ) );
#370 = CARTESIAN_POINT ( 'NONE',  ( 0.0000000000000000000, 0.09999999999999939500, 0.0000000000000000000 ) ) ;
#371 = PRESENTATION_STYLE_ASSIGNMENT (( #197 ) ) ;
#372 = SURFACE_SIDE_STYLE ('',( #313 ) ) ;
#373 = AXIS2_PLACEMENT_3D ( 'NONE', #30, #114, #247 ) ;
#374 = DIRECTION ( 'NONE',  ( 0.0000000000000000000, 0.0000000000000000000, 1.000000000000000000 ) ) ;
#375 = ORIENTED_EDGE ( 'NONE', *, *, #201, .T. ) ;
#376 = CIRCLE ( 'NONE', #278, 31.89999999999999900 ) ;
#377 = DIRECTION ( 'NONE',  ( 0.0000000000000000000, 1.000000000000000000, 0.0000000000000000000 ) ) ;
#378 = DIRECTION ( 'NONE',  ( 0.0000000000000000000, 0.0000000000000000000, 1.000000000000000000 ) ) ;
#379 = CYLINDRICAL_SURFACE ( 'NONE', #290, 35.04999999999999700 ) ;
#380 = FACE_OUTER_BOUND ( 'NONE', #368, .T. ) ;
#381 = AXIS2_PLACEMENT_3D ( 'NONE', #207, #289, #124 ) ;
#382 = DIRECTION ( 'NONE',  ( 0.0000000000000000000, 0.0000000000000000000, 1.000000000000000000 ) ) ;
#383 = VERTEX_POINT ( 'NONE', #200 ) ;
#384 = CARTESIAN_POINT ( 'NONE',  ( -55.00000000000000000, 0.09999999999999761900, 4.499999999999993800 ) ) ;
#385 = PRESENTATION_STYLE_ASSIGNMENT (( #210 ) ) ;
#386 = AXIS2_PLACEMENT_3D ( 'NONE', #163, #118, #347 ) ;
#387 = EDGE_CURVE ( 'NONE', #85, #85, #180, .T. ) ;
#388 = AXIS2_PLACEMENT_3D ( 'NONE', #338, #170, #49 ) ;
#389 = STYLED_ITEM ( 'NONE', ( #385 ), #190 ) ;
#390 = CARTESIAN_POINT ( 'NONE',  ( 31.89999999999999900, -6.300000000000012300, 0.0000000000000000000 ) ) ;
ENDSEC;
END-ISO-10303-21;
