ISO-10303-21;
HEADER;
FILE_DESCRIPTION (( 'STEP AP214' ),
    '1' );
FILE_NAME ('BS1ISOF8076FULLVAC.STEP',
    '2025-12-10T10:23:37',
    ( '' ),
    ( '' ),
    'SwSTEP 2.0',
    'SolidWorks 2017',
    '' );
FILE_SCHEMA (( 'AUTOMOTIVE_DESIGN' ));
ENDSEC;

DATA;
#1 = AXIS2_PLACEMENT_3D ( 'NONE', #232, #344, #144 ) ;
#2 = DIRECTION ( 'NONE',  ( 0.0000000000000000000, 0.0000000000000000000, 1.000000000000000000 ) ) ;
#3 = DIRECTION ( 'NONE',  ( 0.0000000000000000000, 0.0000000000000000000, 1.000000000000000000 ) ) ;
#4 = AXIS2_PLACEMENT_3D ( 'NONE', #215, #70, #43 ) ;
#5 = FACE_OUTER_BOUND ( 'NONE', #62, .T. ) ;
#6 = FACE_OUTER_BOUND ( 'NONE', #234, .T. ) ;
#7 = FACE_OUTER_BOUND ( 'NONE', #263, .T. ) ;
#8 = ADVANCED_FACE ( 'NONE', ( #178, #203 ), #126, .T. ) ;
#9 = CARTESIAN_POINT ( 'NONE',  ( -4.500000000000027500, 62.49999999999999300, 4.499999999999984900 ) ) ;
#10 = PRODUCT ( 'BS1ISOF8076FULLVAC', 'BS1ISOF8076FULLVAC', '', ( #174 ) ) ;
#11 = EDGE_LOOP ( 'NONE', ( #59 ) ) ;
#12 = DIRECTION ( 'NONE',  ( -1.000000000000000000, 0.0000000000000000000, 0.0000000000000000000 ) ) ;
#13 = FACE_OUTER_BOUND ( 'NONE', #125, .T. ) ;
#14 = CARTESIAN_POINT ( 'NONE',  ( -4.500000000000026600, 72.50000000000000000, 0.0000000000000000000 ) ) ;
#15 = CARTESIAN_POINT ( 'NONE',  ( -4.500000000000024900, 0.0000000000000000000, 72.50000000000000000 ) ) ;
#16 = ADVANCED_FACE ( 'NONE', ( #127, #6 ), #306, .F. ) ;
#17 = EDGE_LOOP ( 'NONE', ( #133 ) ) ;
#18 = FACE_OUTER_BOUND ( 'NONE', #249, .T. ) ;
#19 = DIRECTION ( 'NONE',  ( -0.0000000000000000000, 0.0000000000000000000, -1.000000000000000000 ) ) ;
#20 =( LENGTH_UNIT ( ) NAMED_UNIT ( * ) SI_UNIT ( .MILLI., .METRE. ) );
#21 = AXIS2_PLACEMENT_3D ( 'NONE', #207, #295, #108 ) ;
#22 = VERTEX_POINT ( 'NONE', #168 ) ;
#23 = EDGE_LOOP ( 'NONE', ( #132 ) ) ;
#24 = DIRECTION ( 'NONE',  ( -1.000000000000000000, 0.0000000000000000000, 0.0000000000000000000 ) ) ;
#25 = CARTESIAN_POINT ( 'NONE',  ( -4.500000000000024900, 0.0000000000000000000, 0.0000000000000000000 ) ) ;
#26 = FACE_OUTER_BOUND ( 'NONE', #60, .T. ) ;
#27 = APPLICATION_CONTEXT ( 'automotive_design' ) ;
#28 = PRESENTATION_LAYER_ASSIGNMENT (  '', '', ( #212 ) ) ;
#29 = VERTEX_POINT ( 'NONE', #345 ) ;
#30 = CIRCLE ( 'NONE', #343, 4.499999999999983100 ) ;
#31 = ADVANCED_FACE ( 'NONE', ( #326, #241 ), #140, .T. ) ;
#32 = ORIENTED_EDGE ( 'NONE', *, *, #253, .T. ) ;
#33 = DIRECTION ( 'NONE',  ( 0.0000000000000000000, 0.0000000000000000000, 1.000000000000000000 ) ) ;
#34 = CARTESIAN_POINT ( 'NONE',  ( -4.500000000000026600, 62.49999999999999300, 1.810008499471856300E-015 ) ) ;
#35 = DIRECTION ( 'NONE',  ( 1.000000000000000000, -0.0000000000000000000, -0.0000000000000000000 ) ) ;
#36 = FACE_BOUND ( 'NONE', #275, .T. ) ;
#37 = PRESENTATION_LAYER_ASSIGNMENT (  '', '', ( #194 ) ) ;
#38 = AXIS2_PLACEMENT_3D ( 'NONE', #167, #262, #135 ) ;
#39 = CARTESIAN_POINT ( 'NONE',  ( 7.499999999999949400, 62.49999999999999300, -4.499999999999988500 ) ) ;
#40 = ADVANCED_FACE ( 'NONE', ( #208, #274 ), #256, .F. ) ;
#41 = ORIENTED_EDGE ( 'NONE', *, *, #327, .T. ) ;
#42 = FACE_BOUND ( 'NONE', #254, .T. ) ;
#43 = DIRECTION ( 'NONE',  ( 0.0000000000000000000, 0.0000000000000000000, 1.000000000000000000 ) ) ;
#44 = DIRECTION ( 'NONE',  ( 1.000000000000000000, -0.0000000000000000000, -0.0000000000000000000 ) ) ;
#45 = VERTEX_POINT ( 'NONE', #277 ) ;
#46 = EDGE_LOOP ( 'NONE', ( #210 ) ) ;
#47 = FACE_OUTER_BOUND ( 'NONE', #85, .T. ) ;
#48 = DIRECTION ( 'NONE',  ( 0.0000000000000000000, 0.0000000000000000000, -1.000000000000000000 ) ) ;
#49 = FACE_OUTER_BOUND ( 'NONE', #153, .T. ) ;
#50 = PRESENTATION_STYLE_ASSIGNMENT (( #73 ) ) ;
#51 = FACE_BOUND ( 'NONE', #176, .T. ) ;
#52 = DIRECTION ( 'NONE',  ( -1.000000000000000000, -0.0000000000000000000, -0.0000000000000000000 ) ) ;
#53 = EDGE_CURVE ( 'NONE', #235, #235, #81, .T. ) ;
#54 = ORIENTED_EDGE ( 'NONE', *, *, #53, .T. ) ;
#55 = EDGE_LOOP ( 'NONE', ( #32 ) ) ;
#56 = CARTESIAN_POINT ( 'NONE',  ( 0.0000000000000000000, 0.0000000000000000000, 36.10000000000000100 ) ) ;
#57 = DIRECTION ( 'NONE',  ( 0.0000000000000000000, 0.0000000000000000000, 1.000000000000000000 ) ) ;
#58 = PRODUCT_DEFINITION_SHAPE ( 'NONE', 'NONE',  #332 ) ;
#59 = ORIENTED_EDGE ( 'NONE', *, *, #304, .F. ) ;
#60 = EDGE_LOOP ( 'NONE', ( #287 ) ) ;
#61 = CARTESIAN_POINT ( 'NONE',  ( 7.499999999999949400, -1.759238745911436400E-012, 62.49999999999823800 ) ) ;
#62 = EDGE_LOOP ( 'NONE', ( #350 ) ) ;
#63 = FACE_BOUND ( 'NONE', #11, .T. ) ;
#64 = EDGE_CURVE ( 'NONE', #204, #204, #86, .T. ) ;
#65 = ADVANCED_FACE ( 'NONE', ( #229, #103 ), #161, .F. ) ;
#66 = DIRECTION ( 'NONE',  ( -1.000000000000000000, 0.0000000000000000000, 0.0000000000000000000 ) ) ;
#67 = EDGE_LOOP ( 'NONE', ( #102 ) ) ;
#68 = CARTESIAN_POINT ( 'NONE',  ( 7.499999999999976900, 0.0000000000000000000, 0.0000000000000000000 ) ) ;
#69 = ADVANCED_FACE ( 'NONE', ( #18, #47 ), #96, .F. ) ;
#70 = DIRECTION ( 'NONE',  ( -1.000000000000000000, 0.0000000000000000000, 0.0000000000000000000 ) ) ;
#71 = ORIENTED_EDGE ( 'NONE', *, *, #64, .F. ) ;
#72 = ORIENTED_EDGE ( 'NONE', *, *, #250, .T. ) ;
#73 = SURFACE_STYLE_USAGE ( .BOTH. , #317 ) ;
#74 =( NAMED_UNIT ( * ) SI_UNIT ( $, .STERADIAN. ) SOLID_ANGLE_UNIT ( ) );
#75 =( LENGTH_UNIT ( ) NAMED_UNIT ( * ) SI_UNIT ( .MILLI., .METRE. ) );
#76 = APPLICATION_PROTOCOL_DEFINITION ( 'draft international standard', 'automotive_design', 1998, #124 ) ;
#77 = CARTESIAN_POINT ( 'NONE',  ( 7.499999999999950300, 38.20000000000000300, 0.0000000000000000000 ) ) ;
#78 = DIRECTION ( 'NONE',  ( -0.0000000000000000000, 0.0000000000000000000, -1.000000000000000000 ) ) ;
#79 = CARTESIAN_POINT ( 'NONE',  ( -4.500000000000030200, 0.0000000000000000000, 38.10000000000000100 ) ) ;
#80 = VERTEX_POINT ( 'NONE', #15 ) ;
#81 = CIRCLE ( 'NONE', #259, 38.10000000000000100 ) ;
#82 = AXIS2_PLACEMENT_3D ( 'NONE', #77, #169, #19 ) ;
#83 = CLOSED_SHELL ( 'NONE', ( #245, #8, #307, #16, #31, #265, #318, #231, #40, #297, #69, #65 ) ) ;
#84 = AXIS2_PLACEMENT_3D ( 'NONE', #137, #105, #2 ) ;
#85 = EDGE_LOOP ( 'NONE', ( #155 ) ) ;
#86 = CIRCLE ( 'NONE', #21, 4.499999999999990200 ) ;
#87 = COLOUR_RGB ( '',0.7921568627450980000, 0.8196078431372548800, 0.9333333333333333500 ) ;
#88 = VERTEX_POINT ( 'NONE', #205 ) ;
#89 =( LENGTH_UNIT ( ) NAMED_UNIT ( * ) SI_UNIT ( .MILLI., .METRE. ) );
#90 = EDGE_LOOP ( 'NONE', ( #113 ) ) ;
#91 = EDGE_CURVE ( 'NONE', #150, #150, #217, .T. ) ;
#92 = DIRECTION ( 'NONE',  ( 0.0000000000000000000, 0.0000000000000000000, 1.000000000000000000 ) ) ;
#93 = AXIS2_PLACEMENT_3D ( 'NONE', #141, #303, #202 ) ;
#94 = DIRECTION ( 'NONE',  ( 0.0000000000000000000, 0.0000000000000000000, 1.000000000000000000 ) ) ;
#95 = AXIS2_PLACEMENT_3D ( 'NONE', #179, #12, #33 ) ;
#96 = CYLINDRICAL_SURFACE ( 'NONE', #271, 4.499999999999990200 ) ;
#97 = ORIENTED_EDGE ( 'NONE', *, *, #220, .F. ) ;
#98 = CARTESIAN_POINT ( 'NONE',  ( -4.500000000000026600, 1.766892788406107400E-012, -62.50000000000176200 ) ) ;
#99 = DIRECTION ( 'NONE',  ( 0.0000000000000000000, 0.0000000000000000000, 1.000000000000000000 ) ) ;
#100 = CARTESIAN_POINT ( 'NONE',  ( 0.5000000000000555100, 38.20000000000001000, 0.0000000000000000000 ) ) ;
#101 = VERTEX_POINT ( 'NONE', #223 ) ;
#102 = ORIENTED_EDGE ( 'NONE', *, *, #220, .T. ) ;
#103 = FACE_OUTER_BOUND ( 'NONE', #314, .T. ) ;
#104 = AXIS2_PLACEMENT_3D ( 'NONE', #213, #66, #222 ) ;
#105 = DIRECTION ( 'NONE',  ( -1.000000000000000000, 0.0000000000000000000, 0.0000000000000000000 ) ) ;
#106 = UNCERTAINTY_MEASURE_WITH_UNIT (LENGTH_MEASURE( 1.000000000000000100E-005 ), #75, 'distance_accuracy_value', 'NONE');
#107 = ORIENTED_EDGE ( 'NONE', *, *, #226, .T. ) ;
#108 = DIRECTION ( 'NONE',  ( 0.0000000000000000000, 0.0000000000000000000, 1.000000000000000000 ) ) ;
#109 = PLANE ( 'NONE',  #82 ) ;
#110 = AXIS2_PLACEMENT_3D ( 'NONE', #190, #136, #99 ) ;
#111 = DIRECTION ( 'NONE',  ( 0.0000000000000000000, 0.0000000000000000000, 1.000000000000000000 ) ) ;
#112 = CARTESIAN_POINT ( 'NONE',  ( 7.499999999999949400, 1.766892788406107400E-012, -62.50000000000176200 ) ) ;
#113 = ORIENTED_EDGE ( 'NONE', *, *, #339, .F. ) ;
#114 = DIRECTION ( 'NONE',  ( 0.0000000000000000000, 0.0000000000000000000, 1.000000000000000000 ) ) ;
#115 = DIRECTION ( 'NONE',  ( 0.0000000000000000000, 0.0000000000000000000, 1.000000000000000000 ) ) ;
#116 = FILL_AREA_STYLE ('',( #281 ) ) ;
#117 = CIRCLE ( 'NONE', #349, 4.499999999999993800 ) ;
#118 = EDGE_LOOP ( 'NONE', ( #71 ) ) ;
#119 = ORIENTED_EDGE ( 'NONE', *, *, #145, .T. ) ;
#120 = AXIS2_PLACEMENT_3D ( 'NONE', #112, #44, #198 ) ;
#121 = DIRECTION ( 'NONE',  ( -1.000000000000000000, 0.0000000000000000000, 0.0000000000000000000 ) ) ;
#122 = CARTESIAN_POINT ( 'NONE',  ( 7.499999999999950300, 0.0000000000000000000, 72.50000000000000000 ) ) ;
#123 = MECHANICAL_DESIGN_GEOMETRIC_PRESENTATION_REPRESENTATION (  '', ( #194 ), #196 ) ;
#124 = APPLICATION_CONTEXT ( 'automotive_design' ) ;
#125 = EDGE_LOOP ( 'NONE', ( #183 ) ) ;
#126 = CYLINDRICAL_SURFACE ( 'NONE', #146, 72.50000000000000000 ) ;
#127 = FACE_OUTER_BOUND ( 'NONE', #206, .T. ) ;
#128 = COLOUR_RGB ( '',0.7921568627450980000, 0.8196078431372548800, 0.9333333333333333500 ) ;
#129 =( NAMED_UNIT ( * ) PLANE_ANGLE_UNIT ( ) SI_UNIT ( $, .RADIAN. ) );
#130 = EDGE_CURVE ( 'NONE', #283, #283, #200, .T. ) ;
#131 = SURFACE_STYLE_FILL_AREA ( #237 ) ;
#132 = ORIENTED_EDGE ( 'NONE', *, *, #339, .T. ) ;
#133 = ORIENTED_EDGE ( 'NONE', *, *, #186, .F. ) ;
#134 = DIRECTION ( 'NONE',  ( 0.0000000000000000000, 0.0000000000000000000, 1.000000000000000000 ) ) ;
#135 = DIRECTION ( 'NONE',  ( 0.0000000000000000000, 0.0000000000000000000, 1.000000000000000000 ) ) ;
#136 = DIRECTION ( 'NONE',  ( -1.000000000000000000, 0.0000000000000000000, 0.0000000000000000000 ) ) ;
#137 = CARTESIAN_POINT ( 'NONE',  ( 0.5000000000000550700, 0.0000000000000000000, 0.0000000000000000000 ) ) ;
#138 = AXIS2_PLACEMENT_3D ( 'NONE', #98, #147, #92 ) ;
#139 = AXIS2_PLACEMENT_3D ( 'NONE', #335, #121, #142 ) ;
#140 = PLANE ( 'NONE',  #95 ) ;
#141 = CARTESIAN_POINT ( 'NONE',  ( 3.035766082959412400E-014, 0.0000000000000000000, 0.0000000000000000000 ) ) ;
#142 = DIRECTION ( 'NONE',  ( 0.0000000000000000000, 0.0000000000000000000, 1.000000000000000000 ) ) ;
#143 = FACE_OUTER_BOUND ( 'NONE', #55, .T. ) ;
#144 = DIRECTION ( 'NONE',  ( 0.0000000000000000000, 0.0000000000000000000, 1.000000000000000000 ) ) ;
#145 = EDGE_CURVE ( 'NONE', #29, #29, #311, .T. ) ;
#146 = AXIS2_PLACEMENT_3D ( 'NONE', #288, #24, #115 ) ;
#147 = DIRECTION ( 'NONE',  ( -1.000000000000000000, -0.0000000000000000000, -0.0000000000000000000 ) ) ;
#148 = SURFACE_STYLE_FILL_AREA ( #116 ) ;
#149 = AXIS2_PLACEMENT_3D ( 'NONE', #188, #35, #315 ) ;
#150 = VERTEX_POINT ( 'NONE', #39 ) ;
#151 = VERTEX_POINT ( 'NONE', #122 ) ;
#152 = CIRCLE ( 'NONE', #4, 36.10000000000000100 ) ;
#153 = EDGE_LOOP ( 'NONE', ( #273 ) ) ;
#154 = DIRECTION ( 'NONE',  ( -1.000000000000000000, -0.0000000000000000000, -0.0000000000000000000 ) ) ;
#155 = ORIENTED_EDGE ( 'NONE', *, *, #64, .T. ) ;
#156 = DIRECTION ( 'NONE',  ( 1.000000000000000000, -0.0000000000000000000, -0.0000000000000000000 ) ) ;
#157 = DIRECTION ( 'NONE',  ( -1.000000000000000000, -0.0000000000000000000, -0.0000000000000000000 ) ) ;
#158 = FILL_AREA_STYLE_COLOUR ( '', #128 ) ;
#159 = AXIS2_PLACEMENT_3D ( 'NONE', #185, #52, #298 ) ;
#160 = EDGE_LOOP ( 'NONE', ( #165 ) ) ;
#161 = CYLINDRICAL_SURFACE ( 'NONE', #177, 4.499999999999990200 ) ;
#162 = DIRECTION ( 'NONE',  ( -1.000000000000000000, 0.0000000000000000000, 0.0000000000000000000 ) ) ;
#163 = CYLINDRICAL_SURFACE ( 'NONE', #334, 4.499999999999993800 ) ;
#164 = CIRCLE ( 'NONE', #159, 4.499999999999990200 ) ;
#165 = ORIENTED_EDGE ( 'NONE', *, *, #145, .F. ) ;
#166 = CIRCLE ( 'NONE', #93, 38.09999999999999400 ) ;
#167 = CARTESIAN_POINT ( 'NONE',  ( -4.500000000000027500, 1.766892788406107400E-012, -62.50000000000176200 ) ) ;
#168 = CARTESIAN_POINT ( 'NONE',  ( 0.5000000000000559600, 0.0000000000000000000, 36.10000000000000100 ) ) ;
#169 = DIRECTION ( 'NONE',  ( 1.000000000000000000, 0.0000000000000000000, -0.0000000000000000000 ) ) ;
#170 = CIRCLE ( 'NONE', #38, 4.499999999999990200 ) ;
#171 = ADVANCED_BREP_SHAPE_REPRESENTATION ( 'BS1ISOF8076FULLVAC', ( #284, #199 ), #276 ) ;
#172 = FACE_BOUND ( 'NONE', #252, .T. ) ;
#173 = CARTESIAN_POINT ( 'NONE',  ( 7.499999999999949400, -62.50000000000000000, -4.500000000003512700 ) ) ;
#174 = PRODUCT_CONTEXT ( 'NONE', #124, 'mechanical' ) ;
#175 = AXIS2_PLACEMENT_3D ( 'NONE', #100, #336, #78 ) ;
#176 = EDGE_LOOP ( 'NONE', ( #340 ) ) ;
#177 = AXIS2_PLACEMENT_3D ( 'NONE', #34, #211, #114 ) ;
#178 = FACE_OUTER_BOUND ( 'NONE', #23, .T. ) ;
#179 = CARTESIAN_POINT ( 'NONE',  ( 1.517883041479706200E-014, 36.10000000000000100, 0.0000000000000000000 ) ) ;
#180 = FACE_BOUND ( 'NONE', #221, .T. ) ;
#181 = SURFACE_SIDE_STYLE ('',( #131 ) ) ;
#182 = EDGE_LOOP ( 'NONE', ( #313 ) ) ;
#183 = ORIENTED_EDGE ( 'NONE', *, *, #186, .T. ) ;
#184 =( NAMED_UNIT ( * ) SI_UNIT ( $, .STERADIAN. ) SOLID_ANGLE_UNIT ( ) );
#185 = CARTESIAN_POINT ( 'NONE',  ( -4.500000000000027500, -62.50000000000000000, -3.518477491822872900E-012 ) ) ;
#186 = EDGE_CURVE ( 'NONE', #294, #294, #117, .T. ) ;
#187 = CARTESIAN_POINT ( 'NONE',  ( -4.500000000000030200, 0.0000000000000000000, 0.0000000000000000000 ) ) ;
#188 = CARTESIAN_POINT ( 'NONE',  ( 7.499999999999949400, 62.49999999999999300, 1.810008499471856300E-015 ) ) ;
#189 = CARTESIAN_POINT ( 'NONE',  ( 7.499999999999976900, 0.0000000000000000000, 0.0000000000000000000 ) ) ;
#190 = CARTESIAN_POINT ( 'NONE',  ( 0.5000000000000559600, 0.0000000000000000000, 0.0000000000000000000 ) ) ;
#191 = DIRECTION ( 'NONE',  ( -1.000000000000000000, -0.0000000000000000000, -0.0000000000000000000 ) ) ;
#192 = DIRECTION ( 'NONE',  ( -1.000000000000000000, 0.0000000000000000000, 0.0000000000000000000 ) ) ;
#193 = CARTESIAN_POINT ( 'NONE',  ( 3.035766082959412400E-014, 0.0000000000000000000, 38.09999999999999400 ) ) ;
#194 = STYLED_ITEM ( 'NONE', ( #346 ), #171 ) ;
#195 = AXIS2_PLACEMENT_3D ( 'NONE', #61, #261, #347 ) ;
#196 =( GEOMETRIC_REPRESENTATION_CONTEXT ( 3 ) GLOBAL_UNCERTAINTY_ASSIGNED_CONTEXT ( ( #321 ) ) GLOBAL_UNIT_ASSIGNED_CONTEXT ( ( #89, #270, #310 ) ) REPRESENTATION_CONTEXT ( 'NONE', 'WORKASPACE' ) );
#197 = AXIS2_PLACEMENT_3D ( 'NONE', #189, #214, #296 ) ;
#198 = DIRECTION ( 'NONE',  ( 0.0000000000000000000, 0.0000000000000000000, -1.000000000000000000 ) ) ;
#199 = AXIS2_PLACEMENT_3D ( 'NONE', #219, #57, #337 ) ;
#200 = CIRCLE ( 'NONE', #104, 38.20000000000000300 ) ;
#201 = ORIENTED_EDGE ( 'NONE', *, *, #130, .T. ) ;
#202 = DIRECTION ( 'NONE',  ( 0.0000000000000000000, 0.0000000000000000000, 1.000000000000000000 ) ) ;
#203 = FACE_OUTER_BOUND ( 'NONE', #182, .T. ) ;
#204 = VERTEX_POINT ( 'NONE', #216 ) ;
#205 = CARTESIAN_POINT ( 'NONE',  ( -4.500000000000027500, 1.766892788406107400E-012, -58.00000000000176900 ) ) ;
#206 = EDGE_LOOP ( 'NONE', ( #54 ) ) ;
#207 = CARTESIAN_POINT ( 'NONE',  ( -4.500000000000027500, -1.759238745911436400E-012, 62.49999999999823800 ) ) ;
#208 = FACE_OUTER_BOUND ( 'NONE', #331, .T. ) ;
#209 = ORIENTED_EDGE ( 'NONE', *, *, #304, .T. ) ;
#210 = ORIENTED_EDGE ( 'NONE', *, *, #327, .F. ) ;
#211 = DIRECTION ( 'NONE',  ( -1.000000000000000000, -0.0000000000000000000, -0.0000000000000000000 ) ) ;
#212 = STYLED_ITEM ( 'NONE', ( #50 ), #284 ) ;
#213 = CARTESIAN_POINT ( 'NONE',  ( 7.499999999999950300, 0.0000000000000000000, 0.0000000000000000000 ) ) ;
#214 = DIRECTION ( 'NONE',  ( -1.000000000000000000, 0.0000000000000000000, 0.0000000000000000000 ) ) ;
#215 = CARTESIAN_POINT ( 'NONE',  ( 0.0000000000000000000, 0.0000000000000000000, 0.0000000000000000000 ) ) ;
#216 = CARTESIAN_POINT ( 'NONE',  ( -4.500000000000027500, -1.759238745911436400E-012, 66.99999999999822400 ) ) ;
#217 = CIRCLE ( 'NONE', #149, 4.499999999999990200 ) ;
#218 = CIRCLE ( 'NONE', #84, 38.20000000000001000 ) ;
#219 = CARTESIAN_POINT ( 'NONE',  ( 0.0000000000000000000, 0.0000000000000000000, 0.0000000000000000000 ) ) ;
#220 = EDGE_CURVE ( 'NONE', #236, #236, #166, .T. ) ;
#221 = EDGE_LOOP ( 'NONE', ( #72 ) ) ;
#222 = DIRECTION ( 'NONE',  ( 0.0000000000000000000, 0.0000000000000000000, 1.000000000000000000 ) ) ;
#223 = CARTESIAN_POINT ( 'NONE',  ( 7.499999999999949400, 1.766892788406107400E-012, -67.00000000000174800 ) ) ;
#224 = ORIENTED_EDGE ( 'NONE', *, *, #226, .F. ) ;
#225 = DIRECTION ( 'NONE',  ( 0.0000000000000000000, 0.0000000000000000000, 1.000000000000000000 ) ) ;
#226 = EDGE_CURVE ( 'NONE', #88, #88, #170, .T. ) ;
#227 = APPLICATION_PROTOCOL_DEFINITION ( 'draft international standard', 'automotive_design', 1998, #27 ) ;
#228 = AXIS2_PLACEMENT_3D ( 'NONE', #68, #162, #225 ) ;
#229 = FACE_OUTER_BOUND ( 'NONE', #290, .T. ) ;
#230 = FACE_OUTER_BOUND ( 'NONE', #90, .T. ) ;
#231 = ADVANCED_FACE ( 'NONE', ( #49, #5 ), #320, .F. ) ;
#232 = CARTESIAN_POINT ( 'NONE',  ( 7.499999999999950300, 0.0000000000000000000, 0.0000000000000000000 ) ) ;
#233 = EDGE_LOOP ( 'NONE', ( #319 ) ) ;
#234 = EDGE_LOOP ( 'NONE', ( #97 ) ) ;
#235 = VERTEX_POINT ( 'NONE', #79 ) ;
#236 = VERTEX_POINT ( 'NONE', #193 ) ;
#237 = FILL_AREA_STYLE ('',( #158 ) ) ;
#238 = UNCERTAINTY_MEASURE_WITH_UNIT (LENGTH_MEASURE( 1.000000000000000100E-005 ), #20, 'distance_accuracy_value', 'NONE');
#239 = CIRCLE ( 'NONE', #110, 36.10000000000000100 ) ;
#240 = DIRECTION ( 'NONE',  ( -1.000000000000000000, 0.0000000000000000000, 0.0000000000000000000 ) ) ;
#241 = FACE_BOUND ( 'NONE', #286, .T. ) ;
#242 = PRODUCT_DEFINITION_CONTEXT ( 'detailed design', #27, 'design' ) ;
#243 = CIRCLE ( 'NONE', #120, 4.499999999999990200 ) ;
#244 = SURFACE_STYLE_USAGE ( .BOTH. , #181 ) ;
#245 = ADVANCED_FACE ( 'NONE', ( #42, #280, #255, #63, #36, #230 ), #109, .T. ) ;
#246 = ORIENTED_EDGE ( 'NONE', *, *, #291, .F. ) ;
#247 = FACE_OUTER_BOUND ( 'NONE', #260, .T. ) ;
#248 = SHAPE_DEFINITION_REPRESENTATION ( #58, #171 ) ;
#249 = EDGE_LOOP ( 'NONE', ( #119 ) ) ;
#250 = EDGE_CURVE ( 'NONE', #22, #22, #239, .T. ) ;
#251 = CARTESIAN_POINT ( 'NONE',  ( -4.500000000000026600, -62.50000000000000000, -3.518477491822872900E-012 ) ) ;
#252 = EDGE_LOOP ( 'NONE', ( #323 ) ) ;
#253 = EDGE_CURVE ( 'NONE', #80, #80, #341, .T. ) ;
#254 = EDGE_LOOP ( 'NONE', ( #312 ) ) ;
#255 = FACE_BOUND ( 'NONE', #17, .T. ) ;
#256 = CYLINDRICAL_SURFACE ( 'NONE', #138, 4.499999999999990200 ) ;
#257 = PLANE ( 'NONE',  #175 ) ;
#258 = VERTEX_POINT ( 'NONE', #56 ) ;
#259 = AXIS2_PLACEMENT_3D ( 'NONE', #187, #240, #324 ) ;
#260 = EDGE_LOOP ( 'NONE', ( #41 ) ) ;
#261 = DIRECTION ( 'NONE',  ( 1.000000000000000000, -0.0000000000000000000, -0.0000000000000000000 ) ) ;
#262 = DIRECTION ( 'NONE',  ( -1.000000000000000000, -0.0000000000000000000, -0.0000000000000000000 ) ) ;
#263 = EDGE_LOOP ( 'NONE', ( #267 ) ) ;
#264 = DIRECTION ( 'NONE',  ( -1.000000000000000000, 0.0000000000000000000, 0.0000000000000000000 ) ) ;
#265 = ADVANCED_FACE ( 'NONE', ( #308, #7 ), #292, .F. ) ;
#266 =( NAMED_UNIT ( * ) PLANE_ANGLE_UNIT ( ) SI_UNIT ( $, .RADIAN. ) );
#267 = ORIENTED_EDGE ( 'NONE', *, *, #250, .F. ) ;
#268 = PLANE ( 'NONE',  #325 ) ;
#269 = VERTEX_POINT ( 'NONE', #9 ) ;
#270 =( NAMED_UNIT ( * ) PLANE_ANGLE_UNIT ( ) SI_UNIT ( $, .RADIAN. ) );
#271 = AXIS2_PLACEMENT_3D ( 'NONE', #301, #154, #134 ) ;
#272 = PRODUCT_RELATED_PRODUCT_CATEGORY ( 'part', '', ( #10 ) ) ;
#273 = ORIENTED_EDGE ( 'NONE', *, *, #299, .T. ) ;
#274 = FACE_OUTER_BOUND ( 'NONE', #348, .T. ) ;
#275 = EDGE_LOOP ( 'NONE', ( #201 ) ) ;
#276 =( GEOMETRIC_REPRESENTATION_CONTEXT ( 3 ) GLOBAL_UNCERTAINTY_ASSIGNED_CONTEXT ( ( #106 ) ) GLOBAL_UNIT_ASSIGNED_CONTEXT ( ( #75, #266, #74 ) ) REPRESENTATION_CONTEXT ( 'NONE', 'WORKASPACE' ) );
#277 = CARTESIAN_POINT ( 'NONE',  ( 0.5000000000000550700, 0.0000000000000000000, 38.20000000000001000 ) ) ;
#278 = PRODUCT_DEFINITION_FORMATION_WITH_SPECIFIED_SOURCE ( 'ANY', '', #10, .NOT_KNOWN. ) ;
#279 = AXIS2_PLACEMENT_3D ( 'NONE', #25, #264, #111 ) ;
#280 = FACE_BOUND ( 'NONE', #160, .T. ) ;
#281 = FILL_AREA_STYLE_COLOUR ( '', #87 ) ;
#282 = FACE_BOUND ( 'NONE', #118, .T. ) ;
#283 = VERTEX_POINT ( 'NONE', #329 ) ;
#284 = MANIFOLD_SOLID_BREP ( 'Dégagement M81', #83 ) ;
#285 = MECHANICAL_DESIGN_GEOMETRIC_PRESENTATION_REPRESENTATION (  '', ( #212 ), #316 ) ;
#286 = EDGE_LOOP ( 'NONE', ( #246 ) ) ;
#287 = ORIENTED_EDGE ( 'NONE', *, *, #299, .F. ) ;
#288 = CARTESIAN_POINT ( 'NONE',  ( 7.499999999999976900, 0.0000000000000000000, 0.0000000000000000000 ) ) ;
#289 = FACE_BOUND ( 'NONE', #46, .T. ) ;
#290 = EDGE_LOOP ( 'NONE', ( #305 ) ) ;
#291 = EDGE_CURVE ( 'NONE', #258, #258, #152, .T. ) ;
#292 = CYLINDRICAL_SURFACE ( 'NONE', #139, 36.10000000000000100 ) ;
#293 = FACE_BOUND ( 'NONE', #302, .T. ) ;
#294 = VERTEX_POINT ( 'NONE', #173 ) ;
#295 = DIRECTION ( 'NONE',  ( -1.000000000000000000, -0.0000000000000000000, -0.0000000000000000000 ) ) ;
#296 = DIRECTION ( 'NONE',  ( 0.0000000000000000000, 0.0000000000000000000, 1.000000000000000000 ) ) ;
#297 = ADVANCED_FACE ( 'NONE', ( #13, #247 ), #163, .F. ) ;
#298 = DIRECTION ( 'NONE',  ( 0.0000000000000000000, 0.0000000000000000000, 1.000000000000000000 ) ) ;
#299 = EDGE_CURVE ( 'NONE', #45, #45, #218, .T. ) ;
#300 = ORIENTED_EDGE ( 'NONE', *, *, #333, .T. ) ;
#301 = CARTESIAN_POINT ( 'NONE',  ( -4.500000000000026600, -1.759238745911436400E-012, 62.49999999999823800 ) ) ;
#302 = EDGE_LOOP ( 'NONE', ( #224 ) ) ;
#303 = DIRECTION ( 'NONE',  ( -1.000000000000000000, 0.0000000000000000000, 0.0000000000000000000 ) ) ;
#304 = EDGE_CURVE ( 'NONE', #101, #101, #243, .T. ) ;
#305 = ORIENTED_EDGE ( 'NONE', *, *, #91, .T. ) ;
#306 = CYLINDRICAL_SURFACE ( 'NONE', #228, 38.09999999999999400 ) ;
#307 = ADVANCED_FACE ( 'NONE', ( #51, #282, #289, #293, #143, #172 ), #268, .T. ) ;
#308 = FACE_OUTER_BOUND ( 'NONE', #233, .T. ) ;
#309 = CARTESIAN_POINT ( 'NONE',  ( -4.500000000000027500, 62.49999999999999300, 1.810008499471856300E-015 ) ) ;
#310 =( NAMED_UNIT ( * ) SI_UNIT ( $, .STERADIAN. ) SOLID_ANGLE_UNIT ( ) );
#311 = CIRCLE ( 'NONE', #195, 4.499999999999990200 ) ;
#312 = ORIENTED_EDGE ( 'NONE', *, *, #91, .F. ) ;
#313 = ORIENTED_EDGE ( 'NONE', *, *, #253, .F. ) ;
#314 = EDGE_LOOP ( 'NONE', ( #300 ) ) ;
#315 = DIRECTION ( 'NONE',  ( 0.0000000000000000000, 0.0000000000000000000, -1.000000000000000000 ) ) ;
#316 =( GEOMETRIC_REPRESENTATION_CONTEXT ( 3 ) GLOBAL_UNCERTAINTY_ASSIGNED_CONTEXT ( ( #238 ) ) GLOBAL_UNIT_ASSIGNED_CONTEXT ( ( #20, #129, #184 ) ) REPRESENTATION_CONTEXT ( 'NONE', 'WORKASPACE' ) );
#317 = SURFACE_SIDE_STYLE ('',( #148 ) ) ;
#318 = ADVANCED_FACE ( 'NONE', ( #180, #26 ), #257, .T. ) ;
#319 = ORIENTED_EDGE ( 'NONE', *, *, #291, .T. ) ;
#320 = CYLINDRICAL_SURFACE ( 'NONE', #197, 38.20000000000001000 ) ;
#321 = UNCERTAINTY_MEASURE_WITH_UNIT (LENGTH_MEASURE( 1.000000000000000100E-005 ), #89, 'distance_accuracy_value', 'NONE');
#322 = CARTESIAN_POINT ( 'NONE',  ( -4.500000000000027500, -62.50000000000000000, 4.499999999996471300 ) ) ;
#323 = ORIENTED_EDGE ( 'NONE', *, *, #53, .F. ) ;
#324 = DIRECTION ( 'NONE',  ( 0.0000000000000000000, 0.0000000000000000000, 1.000000000000000000 ) ) ;
#325 = AXIS2_PLACEMENT_3D ( 'NONE', #14, #192, #328 ) ;
#326 = FACE_OUTER_BOUND ( 'NONE', #67, .T. ) ;
#327 = EDGE_CURVE ( 'NONE', #330, #330, #164, .T. ) ;
#328 = DIRECTION ( 'NONE',  ( 0.0000000000000000000, 0.0000000000000000000, 1.000000000000000000 ) ) ;
#329 = CARTESIAN_POINT ( 'NONE',  ( 7.499999999999950300, 0.0000000000000000000, 38.20000000000000300 ) ) ;
#330 = VERTEX_POINT ( 'NONE', #322 ) ;
#331 = EDGE_LOOP ( 'NONE', ( #209 ) ) ;
#332 = PRODUCT_DEFINITION ( 'UNKNOWN', '', #278, #242 ) ;
#333 = EDGE_CURVE ( 'NONE', #269, #269, #30, .T. ) ;
#334 = AXIS2_PLACEMENT_3D ( 'NONE', #251, #191, #94 ) ;
#335 = CARTESIAN_POINT ( 'NONE',  ( 7.499999999999976900, 0.0000000000000000000, 0.0000000000000000000 ) ) ;
#336 = DIRECTION ( 'NONE',  ( 1.000000000000000000, 0.0000000000000000000, -0.0000000000000000000 ) ) ;
#337 = DIRECTION ( 'NONE',  ( 1.000000000000000000, 0.0000000000000000000, 0.0000000000000000000 ) ) ;
#338 = CIRCLE ( 'NONE', #1, 72.50000000000000000 ) ;
#339 = EDGE_CURVE ( 'NONE', #151, #151, #338, .T. ) ;
#340 = ORIENTED_EDGE ( 'NONE', *, *, #333, .F. ) ;
#341 = CIRCLE ( 'NONE', #279, 72.50000000000000000 ) ;
#342 = CARTESIAN_POINT ( 'NONE',  ( 7.499999999999949400, -62.50000000000000000, -3.518477491822872900E-012 ) ) ;
#343 = AXIS2_PLACEMENT_3D ( 'NONE', #309, #157, #3 ) ;
#344 = DIRECTION ( 'NONE',  ( -1.000000000000000000, 0.0000000000000000000, 0.0000000000000000000 ) ) ;
#345 = CARTESIAN_POINT ( 'NONE',  ( 7.499999999999949400, -1.759238745911436400E-012, 57.99999999999824500 ) ) ;
#346 = PRESENTATION_STYLE_ASSIGNMENT (( #244 ) ) ;
#347 = DIRECTION ( 'NONE',  ( 0.0000000000000000000, 0.0000000000000000000, -1.000000000000000000 ) ) ;
#348 = EDGE_LOOP ( 'NONE', ( #107 ) ) ;
#349 = AXIS2_PLACEMENT_3D ( 'NONE', #342, #156, #48 ) ;
#350 = ORIENTED_EDGE ( 'NONE', *, *, #130, .F. ) ;
ENDSEC;
END-ISO-10303-21;
