ISO-10303-21;
HEADER;
FILE_DESCRIPTION (( 'STEP AP214' ),
    '1' );
FILE_NAME ('BT1KF505440FULLVAC.STEP',
    '2025-07-03T07:54:54',
    ( '' ),
    ( '' ),
    'SwSTEP 2.0',
    'SolidWorks 2017',
    '' );
FILE_SCHEMA (( 'AUTOMOTIVE_DESIGN' ));
ENDSEC;

DATA;
#1 = DIRECTION ( 'NONE',  ( 0.0000000000000000000, 0.0000000000000000000, 1.000000000000000000 ) ) ;
#2 = MANIFOLD_SOLID_BREP ( 'Congé1', #81 ) ;
#3 = CARTESIAN_POINT ( 'NONE',  ( 1.301042606982605300E-015, 0.0000000000000000000, 37.50000000000000000 ) ) ;
#4 = CIRCLE ( 'NONE', #92, 25.00000000000000000 ) ;
#5 = STYLED_ITEM ( 'NONE', ( #68 ), #199 ) ;
#6 = FACE_BOUND ( 'NONE', #103, .T. ) ;
#7 = CARTESIAN_POINT ( 'NONE',  ( 8.189102383740637800E-016, 37.50000000000000000, 0.0000000000000000000 ) ) ;
#8 = AXIS2_PLACEMENT_3D ( 'NONE', #153, #44, #233 ) ;
#9 =( NAMED_UNIT ( * ) SI_UNIT ( $, .STERADIAN. ) SOLID_ANGLE_UNIT ( ) );
#10 = FACE_OUTER_BOUND ( 'NONE', #209, .T. ) ;
#11 = EDGE_CURVE ( 'NONE', #31, #31, #4, .T. ) ;
#12 = FACE_BOUND ( 'NONE', #208, .T. ) ;
#13 = SHAPE_DEFINITION_REPRESENTATION ( #214, #199 ) ;
#14 = CARTESIAN_POINT ( 'NONE',  ( -40.00000000000000000, 0.0000000000000000000, 0.0000000000000000000 ) ) ;
#15 = DIRECTION ( 'NONE',  ( 1.000000000000000000, -0.0000000000000000000, -0.0000000000000000000 ) ) ;
#16 = ORIENTED_EDGE ( 'NONE', *, *, #59, .F. ) ;
#17 = AXIS2_PLACEMENT_3D ( 'NONE', #100, #137, #52 ) ;
#18 = CARTESIAN_POINT ( 'NONE',  ( -2.540000000000004000, 0.0000000000000000000, 25.00000000000000000 ) ) ;
#19 = DIRECTION ( 'NONE',  ( 1.000000000000000000, 0.0000000000000000000, -0.0000000000000000000 ) ) ;
#20 = AXIS2_PLACEMENT_3D ( 'NONE', #7, #110, #167 ) ;
#21 = VERTEX_POINT ( 'NONE', #70 ) ;
#22 = AXIS2_PLACEMENT_3D ( 'NONE', #106, #178, #90 ) ;
#23 = CARTESIAN_POINT ( 'NONE',  ( -2.540000000000004000, 0.0000000000000000000, 0.0000000000000000000 ) ) ;
#24 = EDGE_LOOP ( 'NONE', ( #226 ) ) ;
#25 = AXIS2_PLACEMENT_3D ( 'NONE', #149, #19, #138 ) ;
#26 = FACE_OUTER_BOUND ( 'NONE', #24, .T. ) ;
#27 = PLANE ( 'NONE',  #25 ) ;
#28 = DIRECTION ( 'NONE',  ( 0.0000000000000000000, 0.0000000000000000000, 1.000000000000000000 ) ) ;
#29 = DIRECTION ( 'NONE',  ( -1.000000000000000000, 0.0000000000000000000, 0.0000000000000000000 ) ) ;
#30 = DIRECTION ( 'NONE',  ( 0.0000000000000000000, 0.0000000000000000000, 1.000000000000000000 ) ) ;
#31 = VERTEX_POINT ( 'NONE', #18 ) ;
#32 = AXIS2_PLACEMENT_3D ( 'NONE', #175, #88, #156 ) ;
#33 = DIRECTION ( 'NONE',  ( 0.0000000000000000000, 0.0000000000000000000, 1.000000000000000000 ) ) ;
#34 = PRODUCT_CONTEXT ( 'NONE', #158, 'mechanical' ) ;
#35 = CIRCLE ( 'NONE', #32, 37.50000000000000000 ) ;
#36 = EDGE_CURVE ( 'NONE', #21, #21, #231, .T. ) ;
#37 = FACE_OUTER_BOUND ( 'NONE', #54, .T. ) ;
#38 = ORIENTED_EDGE ( 'NONE', *, *, #213, .T. ) ;
#39 = ADVANCED_FACE ( 'NONE', ( #6, #64 ), #179, .T. ) ;
#40 = ORIENTED_EDGE ( 'NONE', *, *, #62, .T. ) ;
#41 =( NAMED_UNIT ( * ) PLANE_ANGLE_UNIT ( ) SI_UNIT ( $, .RADIAN. ) );
#42 = TOROIDAL_SURFACE ( 'NONE', #8, 37.29999999999999700, 0.2000000000000000100 ) ;
#43 = AXIS2_PLACEMENT_3D ( 'NONE', #234, #29, #30 ) ;
#44 = DIRECTION ( 'NONE',  ( 1.000000000000000000, -0.0000000000000000000, -0.0000000000000000000 ) ) ;
#45 = EDGE_CURVE ( 'NONE', #219, #219, #185, .T. ) ;
#46 =( NAMED_UNIT ( * ) SI_UNIT ( $, .STERADIAN. ) SOLID_ANGLE_UNIT ( ) );
#47 = EDGE_LOOP ( 'NONE', ( #182 ) ) ;
#48 = PRODUCT_DEFINITION ( 'UNKNOWN', '', #159, #109 ) ;
#49 = APPLICATION_PROTOCOL_DEFINITION ( 'draft international standard', 'automotive_design', 1998, #160 ) ;
#50 = UNCERTAINTY_MEASURE_WITH_UNIT (LENGTH_MEASURE( 1.000000000000000100E-005 ), #191, 'distance_accuracy_value', 'NONE');
#51 = CARTESIAN_POINT ( 'NONE',  ( -2.540000000000000000, 0.0000000000000000000, 26.10000000000000100 ) ) ;
#52 = DIRECTION ( 'NONE',  ( 1.000000000000000000, 0.0000000000000000000, 0.0000000000000000000 ) ) ;
#53 = FACE_OUTER_BOUND ( 'NONE', #177, .T. ) ;
#54 = EDGE_LOOP ( 'NONE', ( #152 ) ) ;
#55 = FACE_OUTER_BOUND ( 'NONE', #150, .T. ) ;
#56 = AXIS2_PLACEMENT_3D ( 'NONE', #113, #84, #33 ) ;
#57 = MECHANICAL_DESIGN_GEOMETRIC_PRESENTATION_REPRESENTATION (  '', ( #5 ), #151 ) ;
#58 = FACE_OUTER_BOUND ( 'NONE', #211, .T. ) ;
#59 = EDGE_CURVE ( 'NONE', #129, #129, #35, .T. ) ;
#60 = EDGE_LOOP ( 'NONE', ( #230 ) ) ;
#61 = PRESENTATION_LAYER_ASSIGNMENT (  '', '', ( #5 ) ) ;
#62 = EDGE_CURVE ( 'NONE', #94, #94, #91, .T. ) ;
#63 = VERTEX_POINT ( 'NONE', #162 ) ;
#64 = FACE_OUTER_BOUND ( 'NONE', #198, .T. ) ;
#65 = ORIENTED_EDGE ( 'NONE', *, *, #45, .T. ) ;
#66 = DIRECTION ( 'NONE',  ( -1.000000000000000000, 0.0000000000000000000, 0.0000000000000000000 ) ) ;
#67 = DIRECTION ( 'NONE',  ( -1.000000000000000000, 0.0000000000000000000, 0.0000000000000000000 ) ) ;
#68 = PRESENTATION_STYLE_ASSIGNMENT (( #123 ) ) ;
#69 = DIRECTION ( 'NONE',  ( 0.0000000000000000000, 0.0000000000000000000, 1.000000000000000000 ) ) ;
#70 = CARTESIAN_POINT ( 'NONE',  ( -3.039719767661805500, 0.0000000000000000000, 37.35176380902012000 ) ) ;
#71 =( NAMED_UNIT ( * ) PLANE_ANGLE_UNIT ( ) SI_UNIT ( $, .RADIAN. ) );
#72 = ORIENTED_EDGE ( 'NONE', *, *, #36, .F. ) ;
#73 =( LENGTH_UNIT ( ) NAMED_UNIT ( * ) SI_UNIT ( .MILLI., .METRE. ) );
#74 =( GEOMETRIC_REPRESENTATION_CONTEXT ( 3 ) GLOBAL_UNCERTAINTY_ASSIGNED_CONTEXT ( ( #89 ) ) GLOBAL_UNIT_ASSIGNED_CONTEXT ( ( #228, #41, #9 ) ) REPRESENTATION_CONTEXT ( 'NONE', 'WORKASPACE' ) );
#75 = CYLINDRICAL_SURFACE ( 'NONE', #56, 25.00000000000000000 ) ;
#76 = ORIENTED_EDGE ( 'NONE', *, *, #62, .F. ) ;
#77 = STYLED_ITEM ( 'NONE', ( #95 ), #2 ) ;
#78 = EDGE_LOOP ( 'NONE', ( #187 ) ) ;
#79 = AXIS2_PLACEMENT_3D ( 'NONE', #14, #102, #104 ) ;
#80 = EDGE_CURVE ( 'NONE', #142, #142, #169, .T. ) ;
#81 = CLOSED_SHELL ( 'NONE', ( #195, #39, #203, #224, #125, #140, #166, #145, #122 ) ) ;
#82 = DIRECTION ( 'NONE',  ( 0.0000000000000000000, 0.0000000000000000000, 1.000000000000000000 ) ) ;
#83 = DIRECTION ( 'NONE',  ( -1.000000000000000000, 0.0000000000000000000, 0.0000000000000000000 ) ) ;
#84 = DIRECTION ( 'NONE',  ( -1.000000000000000000, 0.0000000000000000000, 0.0000000000000000000 ) ) ;
#85 = AXIS2_PLACEMENT_3D ( 'NONE', #131, #66, #133 ) ;
#86 = DIRECTION ( 'NONE',  ( 0.0000000000000000000, 0.0000000000000000000, 1.000000000000000000 ) ) ;
#87 = EDGE_LOOP ( 'NONE', ( #227 ) ) ;
#88 = DIRECTION ( 'NONE',  ( 1.000000000000000000, -0.0000000000000000000, -0.0000000000000000000 ) ) ;
#89 = UNCERTAINTY_MEASURE_WITH_UNIT (LENGTH_MEASURE( 1.000000000000000100E-005 ), #228, 'distance_accuracy_value', 'NONE');
#90 = DIRECTION ( 'NONE',  ( 0.0000000000000000000, 0.0000000000000000000, 1.000000000000000000 ) ) ;
#91 = CIRCLE ( 'NONE', #232, 26.99999999999999600 ) ;
#92 = AXIS2_PLACEMENT_3D ( 'NONE', #23, #97, #144 ) ;
#93 = CIRCLE ( 'NONE', #148, 37.50000000000000000 ) ;
#94 = VERTEX_POINT ( 'NONE', #119 ) ;
#95 = PRESENTATION_STYLE_ASSIGNMENT (( #183 ) ) ;
#96 = AXIS2_PLACEMENT_3D ( 'NONE', #216, #155, #69 ) ;
#97 = DIRECTION ( 'NONE',  ( -1.000000000000000000, 0.0000000000000000000, 0.0000000000000000000 ) ) ;
#98 = SURFACE_SIDE_STYLE ('',( #124 ) ) ;
#99 = AXIS2_PLACEMENT_3D ( 'NONE', #188, #171, #82 ) ;
#100 = CARTESIAN_POINT ( 'NONE',  ( 0.0000000000000000000, 0.0000000000000000000, 0.0000000000000000000 ) ) ;
#101 = AXIS2_PLACEMENT_3D ( 'NONE', #190, #83, #28 ) ;
#102 = DIRECTION ( 'NONE',  ( -1.000000000000000000, 0.0000000000000000000, 0.0000000000000000000 ) ) ;
#103 = EDGE_LOOP ( 'NONE', ( #38 ) ) ;
#104 = DIRECTION ( 'NONE',  ( 0.0000000000000000000, 0.0000000000000000000, 1.000000000000000000 ) ) ;
#105 = FACE_BOUND ( 'NONE', #78, .T. ) ;
#106 = CARTESIAN_POINT ( 'NONE',  ( 3.367778697655222000E-016, 0.0000000000000000000, 0.0000000000000000000 ) ) ;
#107 = COLOUR_RGB ( '',0.6470588235294118000, 0.6196078431372549200, 0.5882352941176470800 ) ;
#108 =( NAMED_UNIT ( * ) PLANE_ANGLE_UNIT ( ) SI_UNIT ( $, .RADIAN. ) );
#109 = PRODUCT_DEFINITION_CONTEXT ( 'detailed design', #160, 'design' ) ;
#110 = DIRECTION ( 'NONE',  ( 1.000000000000000000, 0.0000000000000000000, -0.0000000000000000000 ) ) ;
#111 = CYLINDRICAL_SURFACE ( 'NONE', #126, 26.10000000000000100 ) ;
#112 = VERTEX_POINT ( 'NONE', #221 ) ;
#113 = CARTESIAN_POINT ( 'NONE',  ( 0.0000000000000000000, 0.0000000000000000000, 0.0000000000000000000 ) ) ;
#114 = FACE_OUTER_BOUND ( 'NONE', #120, .T. ) ;
#115 = ORIENTED_EDGE ( 'NONE', *, *, #181, .T. ) ;
#116 = DIRECTION ( 'NONE',  ( -1.000000000000000000, 0.0000000000000000000, 0.0000000000000000000 ) ) ;
#117 = DIRECTION ( 'NONE',  ( 0.0000000000000000000, 0.0000000000000000000, -1.000000000000000000 ) ) ;
#118 = AXIS2_PLACEMENT_3D ( 'NONE', #186, #15, #117 ) ;
#119 = CARTESIAN_POINT ( 'NONE',  ( -5.813466520503969700, 0.0000000000000000000, 26.99999999999999600 ) ) ;
#120 = EDGE_LOOP ( 'NONE', ( #16 ) ) ;
#121 = EDGE_LOOP ( 'NONE', ( #147 ) ) ;
#122 = ADVANCED_FACE ( 'NONE', ( #114, #58 ), #42, .T. ) ;
#123 = SURFACE_STYLE_USAGE ( .BOTH. , #135 ) ;
#124 = SURFACE_STYLE_FILL_AREA ( #205 ) ;
#125 = ADVANCED_FACE ( 'NONE', ( #173, #139 ), #75, .F. ) ;
#126 = AXIS2_PLACEMENT_3D ( 'NONE', #154, #174, #1 ) ;
#127 = ORIENTED_EDGE ( 'NONE', *, *, #181, .F. ) ;
#128 = DIRECTION ( 'NONE',  ( -1.000000000000000000, 0.0000000000000000000, 0.0000000000000000000 ) ) ;
#129 = VERTEX_POINT ( 'NONE', #222 ) ;
#130 = ORIENTED_EDGE ( 'NONE', *, *, #213, .F. ) ;
#131 = CARTESIAN_POINT ( 'NONE',  ( -40.00000000000000000, 0.0000000000000000000, 0.0000000000000000000 ) ) ;
#132 = CARTESIAN_POINT ( 'NONE',  ( 1.301042606982605300E-015, 0.0000000000000000000, 0.0000000000000000000 ) ) ;
#133 = DIRECTION ( 'NONE',  ( 0.0000000000000000000, 0.0000000000000000000, 1.000000000000000000 ) ) ;
#134 = EDGE_LOOP ( 'NONE', ( #65 ) ) ;
#135 = SURFACE_SIDE_STYLE ('',( #206 ) ) ;
#136 =( GEOMETRIC_REPRESENTATION_CONTEXT ( 3 ) GLOBAL_UNCERTAINTY_ASSIGNED_CONTEXT ( ( #50 ) ) GLOBAL_UNIT_ASSIGNED_CONTEXT ( ( #191, #108, #193 ) ) REPRESENTATION_CONTEXT ( 'NONE', 'WORKASPACE' ) );
#137 = DIRECTION ( 'NONE',  ( 0.0000000000000000000, 0.0000000000000000000, 1.000000000000000000 ) ) ;
#138 = DIRECTION ( 'NONE',  ( -0.0000000000000000000, 0.0000000000000000000, -1.000000000000000000 ) ) ;
#139 = FACE_OUTER_BOUND ( 'NONE', #163, .T. ) ;
#140 = ADVANCED_FACE ( 'NONE', ( #37, #105 ), #212, .T. ) ;
#141 = EDGE_CURVE ( 'NONE', #112, #112, #197, .T. ) ;
#142 = VERTEX_POINT ( 'NONE', #51 ) ;
#143 = CYLINDRICAL_SURFACE ( 'NONE', #96, 26.99999999999999600 ) ;
#144 = DIRECTION ( 'NONE',  ( 0.0000000000000000000, 0.0000000000000000000, 1.000000000000000000 ) ) ;
#145 = ADVANCED_FACE ( 'NONE', ( #168, #12 ), #180, .T. ) ;
#146 = FACE_OUTER_BOUND ( 'NONE', #121, .T. ) ;
#147 = ORIENTED_EDGE ( 'NONE', *, *, #141, .F. ) ;
#148 = AXIS2_PLACEMENT_3D ( 'NONE', #132, #67, #86 ) ;
#149 = CARTESIAN_POINT ( 'NONE',  ( -2.540000000000002300, 26.10000000000000100, 0.0000000000000000000 ) ) ;
#150 = EDGE_LOOP ( 'NONE', ( #40 ) ) ;
#151 =( GEOMETRIC_REPRESENTATION_CONTEXT ( 3 ) GLOBAL_UNCERTAINTY_ASSIGNED_CONTEXT ( ( #184 ) ) GLOBAL_UNIT_ASSIGNED_CONTEXT ( ( #73, #71, #46 ) ) REPRESENTATION_CONTEXT ( 'NONE', 'WORKASPACE' ) );
#152 = ORIENTED_EDGE ( 'NONE', *, *, #141, .T. ) ;
#153 = CARTESIAN_POINT ( 'NONE',  ( -2.846534602403886000, 0.0000000000000000000, 0.0000000000000000000 ) ) ;
#154 = CARTESIAN_POINT ( 'NONE',  ( 0.0000000000000000000, 0.0000000000000000000, 0.0000000000000000000 ) ) ;
#155 = DIRECTION ( 'NONE',  ( -1.000000000000000000, 0.0000000000000000000, 0.0000000000000000000 ) ) ;
#156 = DIRECTION ( 'NONE',  ( 0.0000000000000000000, 0.0000000000000000000, -1.000000000000000000 ) ) ;
#157 = ORIENTED_EDGE ( 'NONE', *, *, #59, .T. ) ;
#158 = APPLICATION_CONTEXT ( 'automotive_design' ) ;
#159 = PRODUCT_DEFINITION_FORMATION_WITH_SPECIFIED_SOURCE ( 'ANY', '', #172, .NOT_KNOWN. ) ;
#160 = APPLICATION_CONTEXT ( 'automotive_design' ) ;
#161 = VERTEX_POINT ( 'NONE', #3 ) ;
#162 = CARTESIAN_POINT ( 'NONE',  ( 3.367778697655222000E-016, 0.0000000000000000000, 26.10000000000000100 ) ) ;
#163 = EDGE_LOOP ( 'NONE', ( #220 ) ) ;
#164 = CARTESIAN_POINT ( 'NONE',  ( -3.039719767661805500, 0.0000000000000000000, 0.0000000000000000000 ) ) ;
#165 = FACE_OUTER_BOUND ( 'NONE', #60, .T. ) ;
#166 = ADVANCED_FACE ( 'NONE', ( #55, #146 ), #143, .T. ) ;
#167 = DIRECTION ( 'NONE',  ( -0.0000000000000000000, 0.0000000000000000000, -1.000000000000000000 ) ) ;
#168 = FACE_OUTER_BOUND ( 'NONE', #47, .T. ) ;
#169 = CIRCLE ( 'NONE', #101, 26.10000000000000100 ) ;
#170 = CARTESIAN_POINT ( 'NONE',  ( -5.813466520503969700, 0.0000000000000000000, 0.0000000000000000000 ) ) ;
#171 = DIRECTION ( 'NONE',  ( -1.000000000000000000, 0.0000000000000000000, 0.0000000000000000000 ) ) ;
#172 = PRODUCT ( 'BT1KF505440FULLVAC', 'BT1KF505440FULLVAC', '', ( #34 ) ) ;
#173 = FACE_OUTER_BOUND ( 'NONE', #134, .T. ) ;
#174 = DIRECTION ( 'NONE',  ( -1.000000000000000000, 0.0000000000000000000, 0.0000000000000000000 ) ) ;
#175 = CARTESIAN_POINT ( 'NONE',  ( -2.846534602403886000, 0.0000000000000000000, 0.0000000000000000000 ) ) ;
#176 = FILL_AREA_STYLE ('',( #194 ) ) ;
#177 = EDGE_LOOP ( 'NONE', ( #157 ) ) ;
#178 = DIRECTION ( 'NONE',  ( -1.000000000000000000, 0.0000000000000000000, 0.0000000000000000000 ) ) ;
#179 = PLANE ( 'NONE',  #20 ) ;
#180 = CONICAL_SURFACE ( 'NONE', #118, 26.99999999999999600, 1.308996938997774900 ) ;
#181 = EDGE_CURVE ( 'NONE', #161, #161, #93, .T. ) ;
#182 = ORIENTED_EDGE ( 'NONE', *, *, #36, .T. ) ;
#183 = SURFACE_STYLE_USAGE ( .BOTH. , #98 ) ;
#184 = UNCERTAINTY_MEASURE_WITH_UNIT (LENGTH_MEASURE( 1.000000000000000100E-005 ), #73, 'distance_accuracy_value', 'NONE');
#185 = CIRCLE ( 'NONE', #85, 25.00000000000000000 ) ;
#186 = CARTESIAN_POINT ( 'NONE',  ( -5.813466520503969700, 0.0000000000000000000, 0.0000000000000000000 ) ) ;
#187 = ORIENTED_EDGE ( 'NONE', *, *, #45, .F. ) ;
#188 = CARTESIAN_POINT ( 'NONE',  ( -40.00000000000000000, 25.00000000000000000, 0.0000000000000000000 ) ) ;
#189 = AXIS2_PLACEMENT_3D ( 'NONE', #164, #128, #225 ) ;
#190 = CARTESIAN_POINT ( 'NONE',  ( -2.540000000000000000, 0.0000000000000000000, 0.0000000000000000000 ) ) ;
#191 =( LENGTH_UNIT ( ) NAMED_UNIT ( * ) SI_UNIT ( .MILLI., .METRE. ) );
#192 = FACE_BOUND ( 'NONE', #87, .T. ) ;
#193 =( NAMED_UNIT ( * ) SI_UNIT ( $, .STERADIAN. ) SOLID_ANGLE_UNIT ( ) );
#194 = FILL_AREA_STYLE_COLOUR ( '', #223 ) ;
#195 = ADVANCED_FACE ( 'NONE', ( #53, #10 ), #201, .T. ) ;
#196 = CIRCLE ( 'NONE', #22, 26.10000000000000100 ) ;
#197 = CIRCLE ( 'NONE', #79, 26.99999999999999600 ) ;
#198 = EDGE_LOOP ( 'NONE', ( #127 ) ) ;
#199 = ADVANCED_BREP_SHAPE_REPRESENTATION ( 'BT1KF505440FULLVAC', ( #2, #17 ), #136 ) ;
#200 = FILL_AREA_STYLE_COLOUR ( '', #107 ) ;
#201 = CYLINDRICAL_SURFACE ( 'NONE', #43, 37.50000000000000000 ) ;
#202 = PRODUCT_RELATED_PRODUCT_CATEGORY ( 'part', '', ( #172 ) ) ;
#203 = ADVANCED_FACE ( 'NONE', ( #26, #210 ), #111, .F. ) ;
#204 = PRESENTATION_LAYER_ASSIGNMENT (  '', '', ( #77 ) ) ;
#205 = FILL_AREA_STYLE ('',( #200 ) ) ;
#206 = SURFACE_STYLE_FILL_AREA ( #176 ) ;
#207 = EDGE_LOOP ( 'NONE', ( #130 ) ) ;
#208 = EDGE_LOOP ( 'NONE', ( #76 ) ) ;
#209 = EDGE_LOOP ( 'NONE', ( #115 ) ) ;
#210 = FACE_OUTER_BOUND ( 'NONE', #207, .T. ) ;
#211 = EDGE_LOOP ( 'NONE', ( #72 ) ) ;
#212 = PLANE ( 'NONE',  #99 ) ;
#213 = EDGE_CURVE ( 'NONE', #63, #63, #196, .T. ) ;
#214 = PRODUCT_DEFINITION_SHAPE ( 'NONE', 'NONE',  #48 ) ;
#215 = DIRECTION ( 'NONE',  ( 0.0000000000000000000, 0.0000000000000000000, 1.000000000000000000 ) ) ;
#216 = CARTESIAN_POINT ( 'NONE',  ( 0.0000000000000000000, 0.0000000000000000000, 0.0000000000000000000 ) ) ;
#217 = APPLICATION_PROTOCOL_DEFINITION ( 'draft international standard', 'automotive_design', 1998, #158 ) ;
#218 = CARTESIAN_POINT ( 'NONE',  ( -40.00000000000000000, 0.0000000000000000000, 25.00000000000000000 ) ) ;
#219 = VERTEX_POINT ( 'NONE', #218 ) ;
#220 = ORIENTED_EDGE ( 'NONE', *, *, #11, .F. ) ;
#221 = CARTESIAN_POINT ( 'NONE',  ( -40.00000000000000000, 0.0000000000000000000, 26.99999999999999600 ) ) ;
#222 = CARTESIAN_POINT ( 'NONE',  ( -2.846534602403886000, 0.0000000000000000000, -37.50000000000000000 ) ) ;
#223 = COLOUR_RGB ( '',0.6470588235294118000, 0.6196078431372549200, 0.5882352941176470800 ) ;
#224 = ADVANCED_FACE ( 'NONE', ( #192, #165 ), #27, .T. ) ;
#225 = DIRECTION ( 'NONE',  ( 0.0000000000000000000, 0.0000000000000000000, 1.000000000000000000 ) ) ;
#226 = ORIENTED_EDGE ( 'NONE', *, *, #80, .T. ) ;
#227 = ORIENTED_EDGE ( 'NONE', *, *, #11, .T. ) ;
#228 =( LENGTH_UNIT ( ) NAMED_UNIT ( * ) SI_UNIT ( .MILLI., .METRE. ) );
#229 = MECHANICAL_DESIGN_GEOMETRIC_PRESENTATION_REPRESENTATION (  '', ( #77 ), #74 ) ;
#230 = ORIENTED_EDGE ( 'NONE', *, *, #80, .F. ) ;
#231 = CIRCLE ( 'NONE', #189, 37.35176380902012000 ) ;
#232 = AXIS2_PLACEMENT_3D ( 'NONE', #170, #116, #215 ) ;
#233 = DIRECTION ( 'NONE',  ( 0.0000000000000000000, 0.0000000000000000000, -1.000000000000000000 ) ) ;
#234 = CARTESIAN_POINT ( 'NONE',  ( 0.0000000000000000000, 0.0000000000000000000, 0.0000000000000000000 ) ) ;
ENDSEC;
END-ISO-10303-21;
