ISO-10303-21;
HEADER;
FILE_DESCRIPTION (( 'STEP AP214' ),
    '1' );
FILE_NAME ('BT1KF404240LFULLVAC.STEP',
    '2025-02-19T09:21:49',
    ( '' ),
    ( '' ),
    'SwSTEP 2.0',
    'SolidWorks 2017',
    '' );
FILE_SCHEMA (( 'AUTOMOTIVE_DESIGN' ));
ENDSEC;

DATA;
#1 = ADVANCED_FACE ( 'NONE', ( #133, #81 ), #157, .T. ) ;
#2 = EDGE_LOOP ( 'NONE', ( #41 ) ) ;
#3 = CARTESIAN_POINT ( 'NONE',  ( -4.600700580845488800, 0.0000000000000000000, 0.0000000000000000000 ) ) ;
#4 = CARTESIAN_POINT ( 'NONE',  ( -5.083663493990286500, 0.0000000000000000000, 0.0000000000000000000 ) ) ;
#5 =( NAMED_UNIT ( * ) SI_UNIT ( $, .STERADIAN. ) SOLID_ANGLE_UNIT ( ) );
#6 = DIRECTION ( 'NONE',  ( -1.000000000000000000, 0.0000000000000000000, 0.0000000000000000000 ) ) ;
#7 = DIRECTION ( 'NONE',  ( -1.000000000000000000, 0.0000000000000000000, 0.0000000000000000000 ) ) ;
#8 = TOROIDAL_SURFACE ( 'NONE', #140, 21.69999999999999200, 0.5000000000000002200 ) ;
#9 = CIRCLE ( 'NONE', #63, 27.12940952254399800 ) ;
#10 = DIRECTION ( 'NONE',  ( -1.000000000000000000, 0.0000000000000000000, 0.0000000000000000000 ) ) ;
#11 = DIRECTION ( 'NONE',  ( -1.000000000000000000, 0.0000000000000000000, 0.0000000000000000000 ) ) ;
#12 = DIRECTION ( 'NONE',  ( -0.0000000000000000000, 0.0000000000000000000, -1.000000000000000000 ) ) ;
#13 =( NAMED_UNIT ( * ) SI_UNIT ( $, .STERADIAN. ) SOLID_ANGLE_UNIT ( ) );
#14 = EDGE_LOOP ( 'NONE', ( #90 ) ) ;
#15 = EDGE_CURVE ( 'NONE', #79, #79, #169, .T. ) ;
#16 = VERTEX_POINT ( 'NONE', #139 ) ;
#17 =( NAMED_UNIT ( * ) PLANE_ANGLE_UNIT ( ) SI_UNIT ( $, .RADIAN. ) );
#18 = FACE_OUTER_BOUND ( 'NONE', #181, .T. ) ;
#19 = VERTEX_POINT ( 'NONE', #209 ) ;
#20 = EDGE_LOOP ( 'NONE', ( #25 ) ) ;
#21 = COLOUR_RGB ( '',0.6470588235294118000, 0.6196078431372549200, 0.5882352941176470800 ) ;
#22 = EDGE_CURVE ( 'NONE', #153, #153, #72, .T. ) ;
#23 = CIRCLE ( 'NONE', #47, 19.19999999999999900 ) ;
#24 = ADVANCED_FACE ( 'NONE', ( #171, #141 ), #220, .T. ) ;
#25 = ORIENTED_EDGE ( 'NONE', *, *, #158, .F. ) ;
#26 = DIRECTION ( 'NONE',  ( 0.0000000000000000000, 0.0000000000000000000, 1.000000000000000000 ) ) ;
#27 = AXIS2_PLACEMENT_3D ( 'NONE', #201, #150, #198 ) ;
#28 = CLOSED_SHELL ( 'NONE', ( #237, #44, #196, #159, #1, #24, #84, #240, #215, #236 ) ) ;
#29 = CARTESIAN_POINT ( 'NONE',  ( -40.00000000000000000, 0.0000000000000000000, 0.0000000000000000000 ) ) ;
#30 = DIRECTION ( 'NONE',  ( 1.000000000000000000, 0.0000000000000000000, 0.0000000000000000000 ) ) ;
#31 = DIRECTION ( 'NONE',  ( -1.000000000000000000, 0.0000000000000000000, 0.0000000000000000000 ) ) ;
#32 = EDGE_CURVE ( 'NONE', #73, #73, #23, .T. ) ;
#33 = DIRECTION ( 'NONE',  ( 0.0000000000000000000, 0.0000000000000000000, 1.000000000000000000 ) ) ;
#34 = EDGE_LOOP ( 'NONE', ( #137 ) ) ;
#35 =( LENGTH_UNIT ( ) NAMED_UNIT ( * ) SI_UNIT ( .MILLI., .METRE. ) );
#36 = CARTESIAN_POINT ( 'NONE',  ( 0.0000000000000000000, 0.0000000000000000000, 0.0000000000000000000 ) ) ;
#37 = CARTESIAN_POINT ( 'NONE',  ( -3.111219506853812900, 0.0000000000000000000, 27.12940952254399800 ) ) ;
#38 = EDGE_LOOP ( 'NONE', ( #102 ) ) ;
#39 = EDGE_CURVE ( 'NONE', #19, #19, #80, .T. ) ;
#40 = PRESENTATION_STYLE_ASSIGNMENT (( #113 ) ) ;
#41 = ORIENTED_EDGE ( 'NONE', *, *, #197, .T. ) ;
#42 = PRODUCT_RELATED_PRODUCT_CATEGORY ( 'part', '', ( #249 ) ) ;
#43 =( GEOMETRIC_REPRESENTATION_CONTEXT ( 3 ) GLOBAL_UNCERTAINTY_ASSIGNED_CONTEXT ( ( #177 ) ) GLOBAL_UNIT_ASSIGNED_CONTEXT ( ( #154, #17, #99 ) ) REPRESENTATION_CONTEXT ( 'NONE', 'WORKASPACE' ) );
#44 = ADVANCED_FACE ( 'NONE', ( #122, #232 ), #163, .T. ) ;
#45 = EDGE_LOOP ( 'NONE', ( #86 ) ) ;
#46 = VERTEX_POINT ( 'NONE', #119 ) ;
#47 = AXIS2_PLACEMENT_3D ( 'NONE', #88, #49, #145 ) ;
#48 = ORIENTED_EDGE ( 'NONE', *, *, #22, .T. ) ;
#49 = DIRECTION ( 'NONE',  ( -1.000000000000000000, 0.0000000000000000000, 0.0000000000000000000 ) ) ;
#50 = FACE_OUTER_BOUND ( 'NONE', #55, .T. ) ;
#51 = EDGE_CURVE ( 'NONE', #46, #46, #174, .T. ) ;
#52 = CARTESIAN_POINT ( 'NONE',  ( -4.600700580845488800, 0.0000000000000000000, 0.0000000000000000000 ) ) ;
#53 = PRODUCT_DEFINITION_FORMATION_WITH_SPECIFIED_SOURCE ( 'ANY', '', #249, .NOT_KNOWN. ) ;
#54 = CARTESIAN_POINT ( 'NONE',  ( -4.600700580845488800, 0.0000000000000000000, 21.57059047744971600 ) ) ;
#55 = EDGE_LOOP ( 'NONE', ( #234 ) ) ;
#56 = CARTESIAN_POINT ( 'NONE',  ( -2.540000000000003600, 0.0000000000000000000, 0.0000000000000000000 ) ) ;
#57 = UNCERTAINTY_MEASURE_WITH_UNIT (LENGTH_MEASURE( 1.000000000000000100E-005 ), #226, 'distance_accuracy_value', 'NONE');
#58 = CARTESIAN_POINT ( 'NONE',  ( 0.0000000000000000000, 0.0000000000000000000, 0.0000000000000000000 ) ) ;
#59 = MECHANICAL_DESIGN_GEOMETRIC_PRESENTATION_REPRESENTATION (  '', ( #189 ), #82 ) ;
#60 = EDGE_LOOP ( 'NONE', ( #239 ) ) ;
#61 = FACE_OUTER_BOUND ( 'NONE', #104, .T. ) ;
#62 = FILL_AREA_STYLE_COLOUR ( '', #92 ) ;
#63 = AXIS2_PLACEMENT_3D ( 'NONE', #250, #7, #131 ) ;
#64 = CIRCLE ( 'NONE', #217, 20.60000000000000100 ) ;
#65 = FACE_OUTER_BOUND ( 'NONE', #20, .T. ) ;
#66 = CYLINDRICAL_SURFACE ( 'NONE', #142, 19.19999999999999900 ) ;
#67 = DIRECTION ( 'NONE',  ( -1.000000000000000000, 0.0000000000000000000, 0.0000000000000000000 ) ) ;
#68 = ORIENTED_EDGE ( 'NONE', *, *, #22, .F. ) ;
#69 = DIRECTION ( 'NONE',  ( 0.0000000000000000000, 0.0000000000000000000, 1.000000000000000000 ) ) ;
#70 = FACE_OUTER_BOUND ( 'NONE', #166, .T. ) ;
#71 = MECHANICAL_DESIGN_GEOMETRIC_PRESENTATION_REPRESENTATION (  '', ( #155 ), #176 ) ;
#72 = CIRCLE ( 'NONE', #112, 27.50000000000000000 ) ;
#73 = VERTEX_POINT ( 'NONE', #186 ) ;
#74 = DIRECTION ( 'NONE',  ( 0.0000000000000000000, 0.0000000000000000000, -1.000000000000000000 ) ) ;
#75 =( NAMED_UNIT ( * ) PLANE_ANGLE_UNIT ( ) SI_UNIT ( $, .RADIAN. ) );
#76 = DIRECTION ( 'NONE',  ( -1.000000000000000000, 0.0000000000000000000, 0.0000000000000000000 ) ) ;
#77 = CARTESIAN_POINT ( 'NONE',  ( -2.540000000000001800, 20.60000000000000100, 0.0000000000000000000 ) ) ;
#78 = EDGE_LOOP ( 'NONE', ( #121 ) ) ;
#79 = VERTEX_POINT ( 'NONE', #54 ) ;
#80 = CIRCLE ( 'NONE', #27, 27.50000000000000000 ) ;
#81 = FACE_OUTER_BOUND ( 'NONE', #34, .T. ) ;
#82 =( GEOMETRIC_REPRESENTATION_CONTEXT ( 3 ) GLOBAL_UNCERTAINTY_ASSIGNED_CONTEXT ( ( #188 ) ) GLOBAL_UNIT_ASSIGNED_CONTEXT ( ( #35, #75, #5 ) ) REPRESENTATION_CONTEXT ( 'NONE', 'WORKASPACE' ) );
#83 = ORIENTED_EDGE ( 'NONE', *, *, #15, .F. ) ;
#84 = ADVANCED_FACE ( 'NONE', ( #18, #216 ), #66, .F. ) ;
#85 = AXIS2_PLACEMENT_3D ( 'NONE', #29, #125, #222 ) ;
#86 = ORIENTED_EDGE ( 'NONE', *, *, #211, .F. ) ;
#87 = DIRECTION ( 'NONE',  ( -1.000000000000000000, 0.0000000000000000000, 0.0000000000000000000 ) ) ;
#88 = CARTESIAN_POINT ( 'NONE',  ( -40.00000000000000000, 0.0000000000000000000, 0.0000000000000000000 ) ) ;
#89 = CARTESIAN_POINT ( 'NONE',  ( -2.628256593700829800, 0.0000000000000000000, 0.0000000000000000000 ) ) ;
#90 = ORIENTED_EDGE ( 'NONE', *, *, #229, .F. ) ;
#91 = DIRECTION ( 'NONE',  ( -1.000000000000000000, 0.0000000000000000000, 0.0000000000000000000 ) ) ;
#92 = COLOUR_RGB ( '',0.6470588235294118000, 0.6196078431372549200, 0.5882352941176470800 ) ;
#93 = CARTESIAN_POINT ( 'NONE',  ( 0.0000000000000000000, 0.0000000000000000000, 0.0000000000000000000 ) ) ;
#94 = SURFACE_STYLE_USAGE ( .BOTH. , #114 ) ;
#95 = CARTESIAN_POINT ( 'NONE',  ( -5.083663493990289200, 0.0000000000000000000, 0.0000000000000000000 ) ) ;
#96 = DIRECTION ( 'NONE',  ( 1.000000000000000000, 0.0000000000000000000, -0.0000000000000000000 ) ) ;
#97 = CARTESIAN_POINT ( 'NONE',  ( -2.540000000000000000, 0.0000000000000000000, 20.60000000000000100 ) ) ;
#98 = CARTESIAN_POINT ( 'NONE',  ( -2.540000000000003600, 0.0000000000000000000, 19.19999999999999900 ) ) ;
#99 =( NAMED_UNIT ( * ) SI_UNIT ( $, .STERADIAN. ) SOLID_ANGLE_UNIT ( ) );
#100 = AXIS2_PLACEMENT_3D ( 'NONE', #204, #224, #12 ) ;
#101 = EDGE_LOOP ( 'NONE', ( #251 ) ) ;
#102 = ORIENTED_EDGE ( 'NONE', *, *, #211, .T. ) ;
#103 = AXIS2_PLACEMENT_3D ( 'NONE', #160, #67, #200 ) ;
#104 = EDGE_LOOP ( 'NONE', ( #68 ) ) ;
#105 = CARTESIAN_POINT ( 'NONE',  ( -40.00000000000000000, 19.19999999999999900, 0.0000000000000000000 ) ) ;
#106 = EDGE_LOOP ( 'NONE', ( #48 ) ) ;
#107 = PRESENTATION_LAYER_ASSIGNMENT (  '', '', ( #155 ) ) ;
#108 = FACE_BOUND ( 'NONE', #124, .T. ) ;
#109 = APPLICATION_PROTOCOL_DEFINITION ( 'draft international standard', 'automotive_design', 1998, #252 ) ;
#110 = DIRECTION ( 'NONE',  ( -0.0000000000000000000, 0.0000000000000000000, -1.000000000000000000 ) ) ;
#111 = CONICAL_SURFACE ( 'NONE', #192, 21.57059047744971600, 1.308996938997774900 ) ;
#112 = AXIS2_PLACEMENT_3D ( 'NONE', #89, #87, #26 ) ;
#113 = SURFACE_STYLE_USAGE ( .BOTH. , #203 ) ;
#114 = SURFACE_SIDE_STYLE ('',( #235 ) ) ;
#115 = DIRECTION ( 'NONE',  ( 0.0000000000000000000, 0.0000000000000000000, 1.000000000000000000 ) ) ;
#116 = ORIENTED_EDGE ( 'NONE', *, *, #39, .T. ) ;
#117 = FILL_AREA_STYLE ('',( #162 ) ) ;
#118 = CARTESIAN_POINT ( 'NONE',  ( 0.0000000000000000000, 0.0000000000000000000, 20.60000000000000100 ) ) ;
#119 = CARTESIAN_POINT ( 'NONE',  ( -40.00000000000000000, 0.0000000000000000000, 21.19999999999999600 ) ) ;
#120 = CIRCLE ( 'NONE', #129, 20.60000000000000100 ) ;
#121 = ORIENTED_EDGE ( 'NONE', *, *, #229, .T. ) ;
#122 = FACE_OUTER_BOUND ( 'NONE', #106, .T. ) ;
#123 = AXIS2_PLACEMENT_3D ( 'NONE', #3, #146, #161 ) ;
#124 = EDGE_LOOP ( 'NONE', ( #83 ) ) ;
#125 = DIRECTION ( 'NONE',  ( -1.000000000000000000, 0.0000000000000000000, 0.0000000000000000000 ) ) ;
#126 = FACE_OUTER_BOUND ( 'NONE', #38, .T. ) ;
#127 = DIRECTION ( 'NONE',  ( -1.000000000000000000, 0.0000000000000000000, 0.0000000000000000000 ) ) ;
#128 = FACE_OUTER_BOUND ( 'NONE', #2, .T. ) ;
#129 = AXIS2_PLACEMENT_3D ( 'NONE', #230, #31, #205 ) ;
#130 = VERTEX_POINT ( 'NONE', #118 ) ;
#131 = DIRECTION ( 'NONE',  ( 0.0000000000000000000, 0.0000000000000000000, 1.000000000000000000 ) ) ;
#132 = DIRECTION ( 'NONE',  ( 0.0000000000000000000, 0.0000000000000000000, 1.000000000000000000 ) ) ;
#133 = FACE_OUTER_BOUND ( 'NONE', #101, .T. ) ;
#134 = CYLINDRICAL_SURFACE ( 'NONE', #225, 27.50000000000000000 ) ;
#135 = DIRECTION ( 'NONE',  ( -1.000000000000000000, 0.0000000000000000000, 0.0000000000000000000 ) ) ;
#136 = AXIS2_PLACEMENT_3D ( 'NONE', #93, #182, #30 ) ;
#137 = ORIENTED_EDGE ( 'NONE', *, *, #51, .F. ) ;
#138 = CIRCLE ( 'NONE', #170, 21.19999999999999200 ) ;
#139 = CARTESIAN_POINT ( 'NONE',  ( -5.083663493990289200, 0.0000000000000000000, 21.19999999999999200 ) ) ;
#140 = AXIS2_PLACEMENT_3D ( 'NONE', #4, #219, #33 ) ;
#141 = FACE_BOUND ( 'NONE', #143, .T. ) ;
#142 = AXIS2_PLACEMENT_3D ( 'NONE', #144, #127, #69 ) ;
#143 = EDGE_LOOP ( 'NONE', ( #148 ) ) ;
#144 = CARTESIAN_POINT ( 'NONE',  ( 0.0000000000000000000, 0.0000000000000000000, 0.0000000000000000000 ) ) ;
#145 = DIRECTION ( 'NONE',  ( 0.0000000000000000000, 0.0000000000000000000, 1.000000000000000000 ) ) ;
#146 = DIRECTION ( 'NONE',  ( -1.000000000000000000, 0.0000000000000000000, 0.0000000000000000000 ) ) ;
#147 = AXIS2_PLACEMENT_3D ( 'NONE', #56, #76, #132 ) ;
#148 = ORIENTED_EDGE ( 'NONE', *, *, #32, .F. ) ;
#149 = CARTESIAN_POINT ( 'NONE',  ( -2.628256593700829800, 0.0000000000000000000, 0.0000000000000000000 ) ) ;
#150 = DIRECTION ( 'NONE',  ( -1.000000000000000000, 0.0000000000000000000, 0.0000000000000000000 ) ) ;
#151 = DIRECTION ( 'NONE',  ( 0.0000000000000000000, 0.0000000000000000000, 1.000000000000000000 ) ) ;
#152 = AXIS2_PLACEMENT_3D ( 'NONE', #58, #10, #187 ) ;
#153 = VERTEX_POINT ( 'NONE', #191 ) ;
#154 =( LENGTH_UNIT ( ) NAMED_UNIT ( * ) SI_UNIT ( .MILLI., .METRE. ) );
#155 = STYLED_ITEM ( 'NONE', ( #210 ), #194 ) ;
#156 = EDGE_LOOP ( 'NONE', ( #195 ) ) ;
#157 = CYLINDRICAL_SURFACE ( 'NONE', #103, 21.19999999999999600 ) ;
#158 = EDGE_CURVE ( 'NONE', #130, #130, #120, .T. ) ;
#159 = ADVANCED_FACE ( 'NONE', ( #221, #50 ), #8, .F. ) ;
#160 = CARTESIAN_POINT ( 'NONE',  ( 0.0000000000000000000, 0.0000000000000000000, 0.0000000000000000000 ) ) ;
#161 = DIRECTION ( 'NONE',  ( 0.0000000000000000000, 0.0000000000000000000, 1.000000000000000000 ) ) ;
#162 = FILL_AREA_STYLE_COLOUR ( '', #21 ) ;
#163 = TOROIDAL_SURFACE ( 'NONE', #202, 26.99999999999152300, 0.5000000000084758900 ) ;
#164 = CARTESIAN_POINT ( 'NONE',  ( -2.540000000000000000, 0.0000000000000000000, 0.0000000000000000000 ) ) ;
#165 =( NAMED_UNIT ( * ) PLANE_ANGLE_UNIT ( ) SI_UNIT ( $, .RADIAN. ) );
#166 = EDGE_LOOP ( 'NONE', ( #227 ) ) ;
#167 = VERTEX_POINT ( 'NONE', #37 ) ;
#168 = PRODUCT_DEFINITION ( 'UNKNOWN', '', #53, #212 ) ;
#169 = CIRCLE ( 'NONE', #123, 21.57059047744971600 ) ;
#170 = AXIS2_PLACEMENT_3D ( 'NONE', #95, #135, #151 ) ;
#171 = FACE_OUTER_BOUND ( 'NONE', #60, .T. ) ;
#172 = AXIS2_PLACEMENT_3D ( 'NONE', #77, #96, #110 ) ;
#173 = FACE_OUTER_BOUND ( 'NONE', #45, .T. ) ;
#174 = CIRCLE ( 'NONE', #85, 21.19999999999999600 ) ;
#175 = SURFACE_STYLE_FILL_AREA ( #245 ) ;
#176 =( GEOMETRIC_REPRESENTATION_CONTEXT ( 3 ) GLOBAL_UNCERTAINTY_ASSIGNED_CONTEXT ( ( #57 ) ) GLOBAL_UNIT_ASSIGNED_CONTEXT ( ( #226, #165, #13 ) ) REPRESENTATION_CONTEXT ( 'NONE', 'WORKASPACE' ) );
#177 = UNCERTAINTY_MEASURE_WITH_UNIT (LENGTH_MEASURE( 1.000000000000000100E-005 ), #154, 'distance_accuracy_value', 'NONE');
#178 = EDGE_LOOP ( 'NONE', ( #243 ) ) ;
#179 = CIRCLE ( 'NONE', #147, 19.19999999999999900 ) ;
#180 = DIRECTION ( 'NONE',  ( 0.0000000000000000000, 0.0000000000000000000, 1.000000000000000000 ) ) ;
#181 = EDGE_LOOP ( 'NONE', ( #213 ) ) ;
#182 = DIRECTION ( 'NONE',  ( 0.0000000000000000000, 0.0000000000000000000, 1.000000000000000000 ) ) ;
#183 = PRODUCT_DEFINITION_SHAPE ( 'NONE', 'NONE',  #168 ) ;
#184 = PRODUCT_CONTEXT ( 'NONE', #252, 'mechanical' ) ;
#185 = DIRECTION ( 'NONE',  ( 1.000000000000000000, -0.0000000000000000000, -0.0000000000000000000 ) ) ;
#186 = CARTESIAN_POINT ( 'NONE',  ( -40.00000000000000000, 0.0000000000000000000, 19.19999999999999900 ) ) ;
#187 = DIRECTION ( 'NONE',  ( 0.0000000000000000000, 0.0000000000000000000, 1.000000000000000000 ) ) ;
#188 = UNCERTAINTY_MEASURE_WITH_UNIT (LENGTH_MEASURE( 1.000000000000000100E-005 ), #35, 'distance_accuracy_value', 'NONE');
#189 = STYLED_ITEM ( 'NONE', ( #40 ), #231 ) ;
#190 = DIRECTION ( 'NONE',  ( -1.000000000000000000, 0.0000000000000000000, 0.0000000000000000000 ) ) ;
#191 = CARTESIAN_POINT ( 'NONE',  ( -2.628256593700829800, 0.0000000000000000000, 27.50000000000000000 ) ) ;
#192 = AXIS2_PLACEMENT_3D ( 'NONE', #52, #185, #74 ) ;
#193 = EDGE_LOOP ( 'NONE', ( #241 ) ) ;
#194 = MANIFOLD_SOLID_BREP ( 'Révolution1', #28 ) ;
#195 = ORIENTED_EDGE ( 'NONE', *, *, #15, .T. ) ;
#196 = ADVANCED_FACE ( 'NONE', ( #128, #108 ), #111, .T. ) ;
#197 = EDGE_CURVE ( 'NONE', #167, #167, #9, .T. ) ;
#198 = DIRECTION ( 'NONE',  ( 0.0000000000000000000, 0.0000000000000000000, 1.000000000000000000 ) ) ;
#199 = PRESENTATION_LAYER_ASSIGNMENT (  '', '', ( #189 ) ) ;
#200 = DIRECTION ( 'NONE',  ( 0.0000000000000000000, 0.0000000000000000000, 1.000000000000000000 ) ) ;
#201 = CARTESIAN_POINT ( 'NONE',  ( 8.450062914116739600E-016, 0.0000000000000000000, 0.0000000000000000000 ) ) ;
#202 = AXIS2_PLACEMENT_3D ( 'NONE', #149, #91, #242 ) ;
#203 = SURFACE_SIDE_STYLE ('',( #175 ) ) ;
#204 = CARTESIAN_POINT ( 'NONE',  ( 4.225031457058369800E-016, 27.50000000000000000, 0.0000000000000000000 ) ) ;
#205 = DIRECTION ( 'NONE',  ( 0.0000000000000000000, 0.0000000000000000000, 1.000000000000000000 ) ) ;
#206 = PLANE ( 'NONE',  #172 ) ;
#207 = VERTEX_POINT ( 'NONE', #97 ) ;
#208 = SHAPE_DEFINITION_REPRESENTATION ( #183, #231 ) ;
#209 = CARTESIAN_POINT ( 'NONE',  ( 8.450062914116739600E-016, 0.0000000000000000000, 27.50000000000000000 ) ) ;
#210 = PRESENTATION_STYLE_ASSIGNMENT (( #94 ) ) ;
#211 = EDGE_CURVE ( 'NONE', #207, #207, #64, .T. ) ;
#212 = PRODUCT_DEFINITION_CONTEXT ( 'detailed design', #246, 'design' ) ;
#213 = ORIENTED_EDGE ( 'NONE', *, *, #32, .T. ) ;
#214 = FACE_BOUND ( 'NONE', #78, .T. ) ;
#215 = ADVANCED_FACE ( 'NONE', ( #126, #65 ), #228, .F. ) ;
#216 = FACE_OUTER_BOUND ( 'NONE', #14, .T. ) ;
#217 = AXIS2_PLACEMENT_3D ( 'NONE', #164, #11, #223 ) ;
#218 = VERTEX_POINT ( 'NONE', #98 ) ;
#219 = DIRECTION ( 'NONE',  ( -1.000000000000000000, 0.0000000000000000000, 0.0000000000000000000 ) ) ;
#220 = PLANE ( 'NONE',  #254 ) ;
#221 = FACE_OUTER_BOUND ( 'NONE', #156, .T. ) ;
#222 = DIRECTION ( 'NONE',  ( 0.0000000000000000000, 0.0000000000000000000, 1.000000000000000000 ) ) ;
#223 = DIRECTION ( 'NONE',  ( 0.0000000000000000000, 0.0000000000000000000, 1.000000000000000000 ) ) ;
#224 = DIRECTION ( 'NONE',  ( 1.000000000000000000, 0.0000000000000000000, -0.0000000000000000000 ) ) ;
#225 = AXIS2_PLACEMENT_3D ( 'NONE', #36, #190, #115 ) ;
#226 =( LENGTH_UNIT ( ) NAMED_UNIT ( * ) SI_UNIT ( .MILLI., .METRE. ) );
#227 = ORIENTED_EDGE ( 'NONE', *, *, #39, .F. ) ;
#228 = CYLINDRICAL_SURFACE ( 'NONE', #152, 20.60000000000000100 ) ;
#229 = EDGE_CURVE ( 'NONE', #218, #218, #179, .T. ) ;
#230 = CARTESIAN_POINT ( 'NONE',  ( 0.0000000000000000000, 0.0000000000000000000, 0.0000000000000000000 ) ) ;
#231 = ADVANCED_BREP_SHAPE_REPRESENTATION ( 'BT1KF404240LFULLVAC', ( #194, #136 ), #43 ) ;
#232 = FACE_OUTER_BOUND ( 'NONE', #193, .T. ) ;
#233 = FACE_OUTER_BOUND ( 'NONE', #253, .T. ) ;
#234 = ORIENTED_EDGE ( 'NONE', *, *, #238, .F. ) ;
#235 = SURFACE_STYLE_FILL_AREA ( #117 ) ;
#236 = ADVANCED_FACE ( 'NONE', ( #244, #70 ), #247, .T. ) ;
#237 = ADVANCED_FACE ( 'NONE', ( #233, #61 ), #134, .T. ) ;
#238 = EDGE_CURVE ( 'NONE', #16, #16, #138, .T. ) ;
#239 = ORIENTED_EDGE ( 'NONE', *, *, #51, .T. ) ;
#240 = ADVANCED_FACE ( 'NONE', ( #214, #173 ), #206, .T. ) ;
#241 = ORIENTED_EDGE ( 'NONE', *, *, #197, .F. ) ;
#242 = DIRECTION ( 'NONE',  ( 0.0000000000000000000, 0.0000000000000000000, 1.000000000000000000 ) ) ;
#243 = ORIENTED_EDGE ( 'NONE', *, *, #158, .T. ) ;
#244 = FACE_BOUND ( 'NONE', #178, .T. ) ;
#245 = FILL_AREA_STYLE ('',( #62 ) ) ;
#246 = APPLICATION_CONTEXT ( 'automotive_design' ) ;
#247 = PLANE ( 'NONE',  #100 ) ;
#248 = APPLICATION_PROTOCOL_DEFINITION ( 'draft international standard', 'automotive_design', 1998, #246 ) ;
#249 = PRODUCT ( 'BT1KF404240LFULLVAC', 'BT1KF404240LFULLVAC', '', ( #184 ) ) ;
#250 = CARTESIAN_POINT ( 'NONE',  ( -3.111219506853812900, 0.0000000000000000000, 0.0000000000000000000 ) ) ;
#251 = ORIENTED_EDGE ( 'NONE', *, *, #238, .T. ) ;
#252 = APPLICATION_CONTEXT ( 'automotive_design' ) ;
#253 = EDGE_LOOP ( 'NONE', ( #116 ) ) ;
#254 = AXIS2_PLACEMENT_3D ( 'NONE', #105, #6, #180 ) ;
ENDSEC;
END-ISO-10303-21;
