ISO-10303-21;
HEADER;
FILE_DESCRIPTION (( 'STEP AP214' ),
    '1' );
FILE_NAME ('BT1KF404940LFULLVAC.STEP',
    '2025-07-03T07:46:55',
    ( '' ),
    ( '' ),
    'SwSTEP 2.0',
    'SolidWorks 2017',
    '' );
FILE_SCHEMA (( 'AUTOMOTIVE_DESIGN' ));
ENDSEC;

DATA;
#1 = FACE_OUTER_BOUND ( 'NONE', #160, .T. ) ;
#2 = CARTESIAN_POINT ( 'NONE',  ( 0.0000000000000000000, 0.0000000000000000000, 0.0000000000000000000 ) ) ;
#3 = FACE_OUTER_BOUND ( 'NONE', #234, .T. ) ;
#4 = VERTEX_POINT ( 'NONE', #144 ) ;
#5 = UNCERTAINTY_MEASURE_WITH_UNIT (LENGTH_MEASURE( 1.000000000000000100E-005 ), #255, 'distance_accuracy_value', 'NONE');
#6 = ADVANCED_FACE ( 'NONE', ( #133, #1 ), #248, .F. ) ;
#7 = ORIENTED_EDGE ( 'NONE', *, *, #18, .F. ) ;
#8 = CYLINDRICAL_SURFACE ( 'NONE', #154, 27.50000000000000000 ) ;
#9 = PRESENTATION_STYLE_ASSIGNMENT (( #132 ) ) ;
#10 = FACE_OUTER_BOUND ( 'NONE', #23, .T. ) ;
#11 = FACE_OUTER_BOUND ( 'NONE', #266, .T. ) ;
#12 = DIRECTION ( 'NONE',  ( -1.000000000000000000, 0.0000000000000000000, 0.0000000000000000000 ) ) ;
#13 = PRESENTATION_LAYER_ASSIGNMENT (  '', '', ( #94 ) ) ;
#14 = DIRECTION ( 'NONE',  ( 0.0000000000000000000, 0.0000000000000000000, 1.000000000000000000 ) ) ;
#15 = EDGE_LOOP ( 'NONE', ( #259 ) ) ;
#16 = DIRECTION ( 'NONE',  ( 1.000000000000000000, -0.0000000000000000000, -0.0000000000000000000 ) ) ;
#17 = CIRCLE ( 'NONE', #173, 22.24999999999999600 ) ;
#18 = EDGE_CURVE ( 'NONE', #227, #227, #181, .T. ) ;
#19 = CIRCLE ( 'NONE', #159, 22.25000000000000000 ) ;
#20 = FACE_OUTER_BOUND ( 'NONE', #156, .T. ) ;
#21 = PLANE ( 'NONE',  #207 ) ;
#22 = AXIS2_PLACEMENT_3D ( 'NONE', #86, #83, #107 ) ;
#23 = EDGE_LOOP ( 'NONE', ( #54 ) ) ;
#24 = CONICAL_SURFACE ( 'NONE', #117, 20.60000000000000100, 0.7853981633974520500 ) ;
#25 = CARTESIAN_POINT ( 'NONE',  ( -8.406733260251982600, 0.0000000000000000000, 24.29999999999999700 ) ) ;
#26 = VERTEX_POINT ( 'NONE', #219 ) ;
#27 = DIRECTION ( 'NONE',  ( 0.0000000000000000000, 0.0000000000000000000, 1.000000000000000000 ) ) ;
#28 = AXIS2_PLACEMENT_3D ( 'NONE', #217, #190, #216 ) ;
#29 = EDGE_LOOP ( 'NONE', ( #209 ) ) ;
#30 = PRESENTATION_STYLE_ASSIGNMENT (( #235 ) ) ;
#31 = ORIENTED_EDGE ( 'NONE', *, *, #272, .T. ) ;
#32 = DIRECTION ( 'NONE',  ( 0.0000000000000000000, 0.0000000000000000000, 1.000000000000000000 ) ) ;
#33 = EDGE_CURVE ( 'NONE', #152, #152, #164, .T. ) ;
#34 =( NAMED_UNIT ( * ) PLANE_ANGLE_UNIT ( ) SI_UNIT ( $, .RADIAN. ) );
#35 = DIRECTION ( 'NONE',  ( 0.0000000000000000000, 0.0000000000000000000, 1.000000000000000000 ) ) ;
#36 = ORIENTED_EDGE ( 'NONE', *, *, #57, .T. ) ;
#37 = VERTEX_POINT ( 'NONE', #25 ) ;
#38 = CARTESIAN_POINT ( 'NONE',  ( -2.616336506009714100, 0.0000000000000000000, 0.0000000000000000000 ) ) ;
#39 =( GEOMETRIC_REPRESENTATION_CONTEXT ( 3 ) GLOBAL_UNCERTAINTY_ASSIGNED_CONTEXT ( ( #5 ) ) GLOBAL_UNIT_ASSIGNED_CONTEXT ( ( #255, #34, #188 ) ) REPRESENTATION_CONTEXT ( 'NONE', 'WORKASPACE' ) );
#40 = EDGE_LOOP ( 'NONE', ( #148 ) ) ;
#41 = COLOUR_RGB ( '',0.6470588235294118000, 0.6196078431372549200, 0.5882352941176470800 ) ;
#42 = CARTESIAN_POINT ( 'NONE',  ( -4.406733260251984400, 0.0000000000000000000, 22.25000000000000000 ) ) ;
#43 = EDGE_CURVE ( 'NONE', #119, #119, #19, .T. ) ;
#44 = EDGE_LOOP ( 'NONE', ( #169 ) ) ;
#45 = DIRECTION ( 'NONE',  ( -1.000000000000000000, 0.0000000000000000000, 0.0000000000000000000 ) ) ;
#46 = ORIENTED_EDGE ( 'NONE', *, *, #184, .F. ) ;
#47 = MECHANICAL_DESIGN_GEOMETRIC_PRESENTATION_REPRESENTATION (  '', ( #131 ), #39 ) ;
#48 = DIRECTION ( 'NONE',  ( 1.000000000000000000, 0.0000000000000000000, 0.0000000000000000000 ) ) ;
#49 = ADVANCED_FACE ( 'NONE', ( #10, #114 ), #66, .T. ) ;
#50 = CIRCLE ( 'NONE', #106, 24.29999999999999700 ) ;
#51 = VERTEX_POINT ( 'NONE', #223 ) ;
#52 = AXIS2_PLACEMENT_3D ( 'NONE', #97, #16, #232 ) ;
#53 = DIRECTION ( 'NONE',  ( 0.0000000000000000000, 0.0000000000000000000, -1.000000000000000000 ) ) ;
#54 = ORIENTED_EDGE ( 'NONE', *, *, #184, .T. ) ;
#55 = FACE_OUTER_BOUND ( 'NONE', #218, .T. ) ;
#56 = DIRECTION ( 'NONE',  ( 0.0000000000000000000, 0.0000000000000000000, 1.000000000000000000 ) ) ;
#57 = EDGE_CURVE ( 'NONE', #37, #37, #50, .T. ) ;
#58 = DIRECTION ( 'NONE',  ( -1.000000000000000000, 0.0000000000000000000, 0.0000000000000000000 ) ) ;
#59 = CARTESIAN_POINT ( 'NONE',  ( 0.0000000000000000000, 0.0000000000000000000, 0.0000000000000000000 ) ) ;
#60 = FACE_OUTER_BOUND ( 'NONE', #76, .T. ) ;
#61 = DIRECTION ( 'NONE',  ( 0.0000000000000000000, 0.0000000000000000000, -1.000000000000000000 ) ) ;
#62 = CIRCLE ( 'NONE', #140, 22.25000000000000000 ) ;
#63 = UNCERTAINTY_MEASURE_WITH_UNIT (LENGTH_MEASURE( 1.000000000000000100E-005 ), #145, 'distance_accuracy_value', 'NONE');
#64 = AXIS2_PLACEMENT_3D ( 'NONE', #100, #253, #96 ) ;
#65 = VERTEX_POINT ( 'NONE', #87 ) ;
#66 = CONICAL_SURFACE ( 'NONE', #52, 22.25000000000000000, 1.308996938997774900 ) ;
#67 = AXIS2_PLACEMENT_3D ( 'NONE', #233, #161, #120 ) ;
#68 = CYLINDRICAL_SURFACE ( 'NONE', #28, 20.60000000000000100 ) ;
#69 = EDGE_CURVE ( 'NONE', #165, #165, #240, .T. ) ;
#70 = ADVANCED_FACE ( 'NONE', ( #60, #230 ), #24, .F. ) ;
#71 = FACE_OUTER_BOUND ( 'NONE', #245, .T. ) ;
#72 = ADVANCED_BREP_SHAPE_REPRESENTATION ( 'BT1KF404940LFULLVAC', ( #79, #149 ), #254 ) ;
#73 = DIRECTION ( 'NONE',  ( 0.0000000000000000000, 0.0000000000000000000, 1.000000000000000000 ) ) ;
#74 = SHAPE_DEFINITION_REPRESENTATION ( #103, #72 ) ;
#75 = DIRECTION ( 'NONE',  ( 1.000000000000000000, -0.0000000000000000000, -0.0000000000000000000 ) ) ;
#76 = EDGE_LOOP ( 'NONE', ( #99 ) ) ;
#77 = AXIS2_PLACEMENT_3D ( 'NONE', #182, #229, #73 ) ;
#78 = SURFACE_STYLE_FILL_AREA ( #210 ) ;
#79 = MANIFOLD_SOLID_BREP ( 'Congé1', #200 ) ;
#80 = DIRECTION ( 'NONE',  ( -1.000000000000000000, 0.0000000000000000000, 0.0000000000000000000 ) ) ;
#81 = CARTESIAN_POINT ( 'NONE',  ( -39.99999999999999300, 22.25000000000000000, 0.0000000000000000000 ) ) ;
#82 = ORIENTED_EDGE ( 'NONE', *, *, #239, .T. ) ;
#83 = DIRECTION ( 'NONE',  ( 1.000000000000000000, 0.0000000000000000000, -0.0000000000000000000 ) ) ;
#84 = CARTESIAN_POINT ( 'NONE',  ( 8.450062914116739600E-016, 0.0000000000000000000, 0.0000000000000000000 ) ) ;
#85 = AXIS2_PLACEMENT_3D ( 'NONE', #105, #237, #212 ) ;
#86 = CARTESIAN_POINT ( 'NONE',  ( 4.225031457058369800E-016, 27.50000000000000000, 0.0000000000000000000 ) ) ;
#87 = CARTESIAN_POINT ( 'NONE',  ( -3.099299419154511300, 0.0000000000000000000, 27.12940952255027900 ) ) ;
#88 = ORIENTED_EDGE ( 'NONE', *, *, #69, .F. ) ;
#89 = CARTESIAN_POINT ( 'NONE',  ( -39.99999999999999300, 0.0000000000000000000, 24.30000000000000100 ) ) ;
#90 = UNCERTAINTY_MEASURE_WITH_UNIT (LENGTH_MEASURE( 1.000000000000000100E-005 ), #244, 'distance_accuracy_value', 'NONE');
#91 = AXIS2_PLACEMENT_3D ( 'NONE', #183, #75, #53 ) ;
#92 = ORIENTED_EDGE ( 'NONE', *, *, #18, .T. ) ;
#93 = ORIENTED_EDGE ( 'NONE', *, *, #43, .F. ) ;
#94 = STYLED_ITEM ( 'NONE', ( #9 ), #72 ) ;
#95 = EDGE_LOOP ( 'NONE', ( #128 ) ) ;
#96 = DIRECTION ( 'NONE',  ( 0.0000000000000000000, 0.0000000000000000000, 1.000000000000000000 ) ) ;
#97 = CARTESIAN_POINT ( 'NONE',  ( -4.406733260251984400, 0.0000000000000000000, 0.0000000000000000000 ) ) ;
#98 =( GEOMETRIC_REPRESENTATION_CONTEXT ( 3 ) GLOBAL_UNCERTAINTY_ASSIGNED_CONTEXT ( ( #63 ) ) GLOBAL_UNIT_ASSIGNED_CONTEXT ( ( #145, #177, #202 ) ) REPRESENTATION_CONTEXT ( 'NONE', 'WORKASPACE' ) );
#99 = ORIENTED_EDGE ( 'NONE', *, *, #225, .T. ) ;
#100 = CARTESIAN_POINT ( 'NONE',  ( -39.99999999999999300, 0.0000000000000000000, 0.0000000000000000000 ) ) ;
#101 = FILL_AREA_STYLE_COLOUR ( '', #172 ) ;
#102 = CARTESIAN_POINT ( 'NONE',  ( -9.850000000000006800, 0.0000000000000000000, 0.0000000000000000000 ) ) ;
#103 = PRODUCT_DEFINITION_SHAPE ( 'NONE', 'NONE',  #166 ) ;
#104 = EDGE_LOOP ( 'NONE', ( #82 ) ) ;
#105 = CARTESIAN_POINT ( 'NONE',  ( 0.0000000000000000000, 0.0000000000000000000, 0.0000000000000000000 ) ) ;
#106 = AXIS2_PLACEMENT_3D ( 'NONE', #158, #157, #32 ) ;
#107 = DIRECTION ( 'NONE',  ( -0.0000000000000000000, 0.0000000000000000000, -1.000000000000000000 ) ) ;
#108 = DIRECTION ( 'NONE',  ( 0.0000000000000000000, 0.0000000000000000000, 1.000000000000000000 ) ) ;
#109 = PRODUCT_RELATED_PRODUCT_CATEGORY ( 'part', '', ( #136 ) ) ;
#110 = CARTESIAN_POINT ( 'NONE',  ( -39.99999999999999300, 0.0000000000000000000, 22.25000000000000000 ) ) ;
#111 = ORIENTED_EDGE ( 'NONE', *, *, #239, .F. ) ;
#112 = FACE_OUTER_BOUND ( 'NONE', #15, .T. ) ;
#113 = CARTESIAN_POINT ( 'NONE',  ( -2.616336506009714100, 0.0000000000000000000, -27.50000000000000000 ) ) ;
#114 = FACE_BOUND ( 'NONE', #220, .T. ) ;
#115 = AXIS2_PLACEMENT_3D ( 'NONE', #38, #242, #61 ) ;
#116 = TOROIDAL_SURFACE ( 'NONE', #115, 27.00000000000000000, 0.5000000000000000000 ) ;
#117 = AXIS2_PLACEMENT_3D ( 'NONE', #102, #12, #268 ) ;
#118 = FACE_BOUND ( 'NONE', #104, .T. ) ;
#119 = VERTEX_POINT ( 'NONE', #110 ) ;
#120 = DIRECTION ( 'NONE',  ( 0.0000000000000000000, 0.0000000000000000000, 1.000000000000000000 ) ) ;
#121 = ORIENTED_EDGE ( 'NONE', *, *, #221, .T. ) ;
#122 = FACE_BOUND ( 'NONE', #137, .T. ) ;
#123 = SURFACE_SIDE_STYLE ('',( #78 ) ) ;
#124 = FACE_OUTER_BOUND ( 'NONE', #213, .T. ) ;
#125 = PLANE ( 'NONE',  #22 ) ;
#126 = MECHANICAL_DESIGN_GEOMETRIC_PRESENTATION_REPRESENTATION (  '', ( #94 ), #98 ) ;
#127 = DIRECTION ( 'NONE',  ( 0.0000000000000000000, 0.0000000000000000000, 1.000000000000000000 ) ) ;
#128 = ORIENTED_EDGE ( 'NONE', *, *, #43, .T. ) ;
#129 = CIRCLE ( 'NONE', #224, 27.50000000000000000 ) ;
#130 = FILL_AREA_STYLE_COLOUR ( '', #41 ) ;
#131 = STYLED_ITEM ( 'NONE', ( #30 ), #79 ) ;
#132 = SURFACE_STYLE_USAGE ( .BOTH. , #264 ) ;
#133 = FACE_OUTER_BOUND ( 'NONE', #95, .T. ) ;
#134 = APPLICATION_PROTOCOL_DEFINITION ( 'draft international standard', 'automotive_design', 1998, #146 ) ;
#135 = ORIENTED_EDGE ( 'NONE', *, *, #225, .F. ) ;
#136 = PRODUCT ( 'BT1KF404940LFULLVAC', 'BT1KF404940LFULLVAC', '', ( #150 ) ) ;
#137 = EDGE_LOOP ( 'NONE', ( #93 ) ) ;
#138 = DIRECTION ( 'NONE',  ( 0.0000000000000000000, 0.0000000000000000000, 1.000000000000000000 ) ) ;
#139 = DIRECTION ( 'NONE',  ( -1.000000000000000000, 0.0000000000000000000, 0.0000000000000000000 ) ) ;
#140 = AXIS2_PLACEMENT_3D ( 'NONE', #257, #192, #189 ) ;
#141 = CARTESIAN_POINT ( 'NONE',  ( -11.49999999999999300, 0.0000000000000000000, 22.25000000000000000 ) ) ;
#142 = EDGE_LOOP ( 'NONE', ( #111 ) ) ;
#143 = CIRCLE ( 'NONE', #85, 20.60000000000000100 ) ;
#144 = CARTESIAN_POINT ( 'NONE',  ( -9.850000000000006800, 0.0000000000000000000, 20.60000000000000100 ) ) ;
#145 =( LENGTH_UNIT ( ) NAMED_UNIT ( * ) SI_UNIT ( .MILLI., .METRE. ) );
#146 = APPLICATION_CONTEXT ( 'automotive_design' ) ;
#147 = ADVANCED_FACE ( 'NONE', ( #118, #3 ), #201, .T. ) ;
#148 = ORIENTED_EDGE ( 'NONE', *, *, #272, .F. ) ;
#149 = AXIS2_PLACEMENT_3D ( 'NONE', #2, #27, #48 ) ;
#150 = PRODUCT_CONTEXT ( 'NONE', #199, 'mechanical' ) ;
#151 = EDGE_LOOP ( 'NONE', ( #36 ) ) ;
#152 = VERTEX_POINT ( 'NONE', #89 ) ;
#153 = ADVANCED_FACE ( 'NONE', ( #196, #271 ), #246, .T. ) ;
#154 = AXIS2_PLACEMENT_3D ( 'NONE', #59, #58, #215 ) ;
#155 = ADVANCED_FACE ( 'NONE', ( #124, #71 ), #68, .F. ) ;
#156 = EDGE_LOOP ( 'NONE', ( #270 ) ) ;
#157 = DIRECTION ( 'NONE',  ( -1.000000000000000000, 0.0000000000000000000, 0.0000000000000000000 ) ) ;
#158 = CARTESIAN_POINT ( 'NONE',  ( -8.406733260251982600, 0.0000000000000000000, 0.0000000000000000000 ) ) ;
#159 = AXIS2_PLACEMENT_3D ( 'NONE', #256, #139, #138 ) ;
#160 = EDGE_LOOP ( 'NONE', ( #135 ) ) ;
#161 = DIRECTION ( 'NONE',  ( -1.000000000000000000, 0.0000000000000000000, 0.0000000000000000000 ) ) ;
#162 = FACE_OUTER_BOUND ( 'NONE', #186, .T. ) ;
#163 = CARTESIAN_POINT ( 'NONE',  ( -3.099299419154511300, 0.0000000000000000000, 0.0000000000000000000 ) ) ;
#164 = CIRCLE ( 'NONE', #64, 24.30000000000000100 ) ;
#165 = VERTEX_POINT ( 'NONE', #42 ) ;
#166 = PRODUCT_DEFINITION ( 'UNKNOWN', '', #203, #250 ) ;
#167 = FILL_AREA_STYLE ('',( #130 ) ) ;
#168 = DIRECTION ( 'NONE',  ( 0.0000000000000000000, 0.0000000000000000000, 1.000000000000000000 ) ) ;
#169 = ORIENTED_EDGE ( 'NONE', *, *, #176, .T. ) ;
#170 = AXIS2_PLACEMENT_3D ( 'NONE', #211, #80, #269 ) ;
#171 =( NAMED_UNIT ( * ) SI_UNIT ( $, .STERADIAN. ) SOLID_ANGLE_UNIT ( ) );
#172 = COLOUR_RGB ( '',0.6470588235294118000, 0.6196078431372549200, 0.5882352941176470800 ) ;
#173 = AXIS2_PLACEMENT_3D ( 'NONE', #273, #193, #127 ) ;
#174 = FACE_OUTER_BOUND ( 'NONE', #204, .T. ) ;
#175 = ADVANCED_FACE ( 'NONE', ( #236, #174 ), #8, .T. ) ;
#176 = EDGE_CURVE ( 'NONE', #51, #51, #143, .T. ) ;
#177 =( NAMED_UNIT ( * ) PLANE_ANGLE_UNIT ( ) SI_UNIT ( $, .RADIAN. ) );
#178 = AXIS2_PLACEMENT_3D ( 'NONE', #208, #185, #14 ) ;
#179 = CIRCLE ( 'NONE', #191, 20.60000000000000100 ) ;
#180 = ADVANCED_FACE ( 'NONE', ( #187, #20 ), #125, .T. ) ;
#181 = CIRCLE ( 'NONE', #91, 27.50000000000000000 ) ;
#182 = CARTESIAN_POINT ( 'NONE',  ( 0.0000000000000000000, 0.0000000000000000000, 0.0000000000000000000 ) ) ;
#183 = CARTESIAN_POINT ( 'NONE',  ( -2.616336506009714100, 0.0000000000000000000, 0.0000000000000000000 ) ) ;
#184 = EDGE_CURVE ( 'NONE', #65, #65, #249, .T. ) ;
#185 = DIRECTION ( 'NONE',  ( -1.000000000000000000, 0.0000000000000000000, 0.0000000000000000000 ) ) ;
#186 = EDGE_LOOP ( 'NONE', ( #195 ) ) ;
#187 = FACE_BOUND ( 'NONE', #44, .T. ) ;
#188 =( NAMED_UNIT ( * ) SI_UNIT ( $, .STERADIAN. ) SOLID_ANGLE_UNIT ( ) );
#189 = DIRECTION ( 'NONE',  ( 0.0000000000000000000, 0.0000000000000000000, 1.000000000000000000 ) ) ;
#190 = DIRECTION ( 'NONE',  ( -1.000000000000000000, 0.0000000000000000000, 0.0000000000000000000 ) ) ;
#191 = AXIS2_PLACEMENT_3D ( 'NONE', #198, #260, #168 ) ;
#192 = DIRECTION ( 'NONE',  ( -1.000000000000000000, 0.0000000000000000000, 0.0000000000000000000 ) ) ;
#193 = DIRECTION ( 'NONE',  ( -1.000000000000000000, 0.0000000000000000000, 0.0000000000000000000 ) ) ;
#194 =( NAMED_UNIT ( * ) PLANE_ANGLE_UNIT ( ) SI_UNIT ( $, .RADIAN. ) );
#195 = ORIENTED_EDGE ( 'NONE', *, *, #33, .T. ) ;
#196 = FACE_OUTER_BOUND ( 'NONE', #29, .T. ) ;
#197 = SURFACE_STYLE_FILL_AREA ( #167 ) ;
#198 = CARTESIAN_POINT ( 'NONE',  ( -9.850000000000006800, 0.0000000000000000000, 0.0000000000000000000 ) ) ;
#199 = APPLICATION_CONTEXT ( 'automotive_design' ) ;
#200 = CLOSED_SHELL ( 'NONE', ( #175, #180, #155, #70, #6, #252, #205, #147, #153, #49, #228 ) ) ;
#201 = CONICAL_SURFACE ( 'NONE', #170, 24.29999999999999700, 0.6319742418186040700 ) ;
#202 =( NAMED_UNIT ( * ) SI_UNIT ( $, .STERADIAN. ) SOLID_ANGLE_UNIT ( ) );
#203 = PRODUCT_DEFINITION_FORMATION_WITH_SPECIFIED_SOURCE ( 'ANY', '', #136, .NOT_KNOWN. ) ;
#204 = EDGE_LOOP ( 'NONE', ( #121 ) ) ;
#205 = ADVANCED_FACE ( 'NONE', ( #222, #112 ), #231, .T. ) ;
#206 = AXIS2_PLACEMENT_3D ( 'NONE', #163, #238, #108 ) ;
#207 = AXIS2_PLACEMENT_3D ( 'NONE', #81, #45, #262 ) ;
#208 = CARTESIAN_POINT ( 'NONE',  ( 0.0000000000000000000, 0.0000000000000000000, 0.0000000000000000000 ) ) ;
#209 = ORIENTED_EDGE ( 'NONE', *, *, #69, .T. ) ;
#210 = FILL_AREA_STYLE ('',( #101 ) ) ;
#211 = CARTESIAN_POINT ( 'NONE',  ( -8.406733260251982600, 0.0000000000000000000, 0.0000000000000000000 ) ) ;
#212 = DIRECTION ( 'NONE',  ( 0.0000000000000000000, 0.0000000000000000000, 1.000000000000000000 ) ) ;
#213 = EDGE_LOOP ( 'NONE', ( #31 ) ) ;
#214 = VERTEX_POINT ( 'NONE', #141 ) ;
#215 = DIRECTION ( 'NONE',  ( 0.0000000000000000000, 0.0000000000000000000, 1.000000000000000000 ) ) ;
#216 = DIRECTION ( 'NONE',  ( 0.0000000000000000000, 0.0000000000000000000, 1.000000000000000000 ) ) ;
#217 = CARTESIAN_POINT ( 'NONE',  ( 0.0000000000000000000, 0.0000000000000000000, 0.0000000000000000000 ) ) ;
#218 = EDGE_LOOP ( 'NONE', ( #7 ) ) ;
#219 = CARTESIAN_POINT ( 'NONE',  ( 8.450062914116739600E-016, 0.0000000000000000000, 27.50000000000000000 ) ) ;
#220 = EDGE_LOOP ( 'NONE', ( #88 ) ) ;
#221 = EDGE_CURVE ( 'NONE', #26, #26, #129, .T. ) ;
#222 = FACE_OUTER_BOUND ( 'NONE', #151, .T. ) ;
#223 = CARTESIAN_POINT ( 'NONE',  ( 0.0000000000000000000, 0.0000000000000000000, 20.60000000000000100 ) ) ;
#224 = AXIS2_PLACEMENT_3D ( 'NONE', #84, #274, #56 ) ;
#225 = EDGE_CURVE ( 'NONE', #214, #214, #62, .T. ) ;
#226 = EDGE_LOOP ( 'NONE', ( #92 ) ) ;
#227 = VERTEX_POINT ( 'NONE', #113 ) ;
#228 = ADVANCED_FACE ( 'NONE', ( #55, #11 ), #116, .T. ) ;
#229 = DIRECTION ( 'NONE',  ( -1.000000000000000000, 0.0000000000000000000, 0.0000000000000000000 ) ) ;
#230 = FACE_BOUND ( 'NONE', #40, .T. ) ;
#231 = CYLINDRICAL_SURFACE ( 'NONE', #241, 24.30000000000000100 ) ;
#232 = DIRECTION ( 'NONE',  ( 0.0000000000000000000, 0.0000000000000000000, -1.000000000000000000 ) ) ;
#233 = CARTESIAN_POINT ( 'NONE',  ( -4.406733260251984400, 0.0000000000000000000, 0.0000000000000000000 ) ) ;
#234 = EDGE_LOOP ( 'NONE', ( #267 ) ) ;
#235 = SURFACE_STYLE_USAGE ( .BOTH. , #123 ) ;
#236 = FACE_OUTER_BOUND ( 'NONE', #226, .T. ) ;
#237 = DIRECTION ( 'NONE',  ( -1.000000000000000000, 0.0000000000000000000, 0.0000000000000000000 ) ) ;
#238 = DIRECTION ( 'NONE',  ( -1.000000000000000000, 0.0000000000000000000, 0.0000000000000000000 ) ) ;
#239 = EDGE_CURVE ( 'NONE', #263, #263, #17, .T. ) ;
#240 = CIRCLE ( 'NONE', #67, 22.25000000000000000 ) ;
#241 = AXIS2_PLACEMENT_3D ( 'NONE', #258, #243, #35 ) ;
#242 = DIRECTION ( 'NONE',  ( 1.000000000000000000, -0.0000000000000000000, -0.0000000000000000000 ) ) ;
#243 = DIRECTION ( 'NONE',  ( -1.000000000000000000, 0.0000000000000000000, 0.0000000000000000000 ) ) ;
#244 =( LENGTH_UNIT ( ) NAMED_UNIT ( * ) SI_UNIT ( .MILLI., .METRE. ) );
#245 = EDGE_LOOP ( 'NONE', ( #251 ) ) ;
#246 = CYLINDRICAL_SURFACE ( 'NONE', #77, 22.25000000000000000 ) ;
#247 = APPLICATION_PROTOCOL_DEFINITION ( 'draft international standard', 'automotive_design', 1998, #199 ) ;
#248 = CYLINDRICAL_SURFACE ( 'NONE', #178, 22.25000000000000000 ) ;
#249 = CIRCLE ( 'NONE', #206, 27.12940952255027900 ) ;
#250 = PRODUCT_DEFINITION_CONTEXT ( 'detailed design', #146, 'design' ) ;
#251 = ORIENTED_EDGE ( 'NONE', *, *, #176, .F. ) ;
#252 = ADVANCED_FACE ( 'NONE', ( #162, #122 ), #21, .T. ) ;
#253 = DIRECTION ( 'NONE',  ( -1.000000000000000000, 0.0000000000000000000, 0.0000000000000000000 ) ) ;
#254 =( GEOMETRIC_REPRESENTATION_CONTEXT ( 3 ) GLOBAL_UNCERTAINTY_ASSIGNED_CONTEXT ( ( #90 ) ) GLOBAL_UNIT_ASSIGNED_CONTEXT ( ( #244, #194, #171 ) ) REPRESENTATION_CONTEXT ( 'NONE', 'WORKASPACE' ) );
#255 =( LENGTH_UNIT ( ) NAMED_UNIT ( * ) SI_UNIT ( .MILLI., .METRE. ) );
#256 = CARTESIAN_POINT ( 'NONE',  ( -39.99999999999999300, 0.0000000000000000000, 0.0000000000000000000 ) ) ;
#257 = CARTESIAN_POINT ( 'NONE',  ( -11.49999999999999300, 0.0000000000000000000, 0.0000000000000000000 ) ) ;
#258 = CARTESIAN_POINT ( 'NONE',  ( 0.0000000000000000000, 0.0000000000000000000, 0.0000000000000000000 ) ) ;
#259 = ORIENTED_EDGE ( 'NONE', *, *, #33, .F. ) ;
#260 = DIRECTION ( 'NONE',  ( -1.000000000000000000, 0.0000000000000000000, 0.0000000000000000000 ) ) ;
#261 = CARTESIAN_POINT ( 'NONE',  ( -5.606733260251983700, 0.0000000000000000000, 22.24999999999999600 ) ) ;
#262 = DIRECTION ( 'NONE',  ( 0.0000000000000000000, 0.0000000000000000000, 1.000000000000000000 ) ) ;
#263 = VERTEX_POINT ( 'NONE', #261 ) ;
#264 = SURFACE_SIDE_STYLE ('',( #197 ) ) ;
#265 = PRESENTATION_LAYER_ASSIGNMENT (  '', '', ( #131 ) ) ;
#266 = EDGE_LOOP ( 'NONE', ( #46 ) ) ;
#267 = ORIENTED_EDGE ( 'NONE', *, *, #57, .F. ) ;
#268 = DIRECTION ( 'NONE',  ( 0.0000000000000000000, 0.0000000000000000000, 1.000000000000000000 ) ) ;
#269 = DIRECTION ( 'NONE',  ( 0.0000000000000000000, 0.0000000000000000000, 1.000000000000000000 ) ) ;
#270 = ORIENTED_EDGE ( 'NONE', *, *, #221, .F. ) ;
#271 = FACE_OUTER_BOUND ( 'NONE', #142, .T. ) ;
#272 = EDGE_CURVE ( 'NONE', #4, #4, #179, .T. ) ;
#273 = CARTESIAN_POINT ( 'NONE',  ( -5.606733260251983700, 0.0000000000000000000, 0.0000000000000000000 ) ) ;
#274 = DIRECTION ( 'NONE',  ( -1.000000000000000000, 0.0000000000000000000, 0.0000000000000000000 ) ) ;
ENDSEC;
END-ISO-10303-21;
