ISO-10303-21;
HEADER;
FILE_DESCRIPTION (( 'STEP AP214' ),
    '1' );
FILE_NAME ('BT1KF253440FULLVAC.STEP',
    '2025-07-03T09:20:17',
    ( '' ),
    ( '' ),
    'SwSTEP 2.0',
    'SolidWorks 2017',
    '' );
FILE_SCHEMA (( 'AUTOMOTIVE_DESIGN' ));
ENDSEC;

DATA;
#1 = DIRECTION ( 'NONE',  ( 0.0000000000000000000, 0.0000000000000000000, -1.000000000000000000 ) ) ;
#2 = EDGE_LOOP ( 'NONE', ( #31 ) ) ;
#3 = DIRECTION ( 'NONE',  ( -1.000000000000000000, 0.0000000000000000000, 0.0000000000000000000 ) ) ;
#4 =( GEOMETRIC_REPRESENTATION_CONTEXT ( 3 ) GLOBAL_UNCERTAINTY_ASSIGNED_CONTEXT ( ( #41 ) ) GLOBAL_UNIT_ASSIGNED_CONTEXT ( ( #278, #128, #162 ) ) REPRESENTATION_CONTEXT ( 'NONE', 'WORKASPACE' ) );
#5 = APPLICATION_CONTEXT ( 'automotive_design' ) ;
#6 = CARTESIAN_POINT ( 'NONE',  ( -10.20000000000001500, 0.0000000000000000000, 13.10000000000000000 ) ) ;
#7 = EDGE_CURVE ( 'NONE', #198, #198, #130, .T. ) ;
#8 = CARTESIAN_POINT ( 'NONE',  ( -7.200000000000002800, 0.0000000000000000000, 15.99999999999999600 ) ) ;
#9 = ADVANCED_BREP_SHAPE_REPRESENTATION ( 'BT1KF253440FULLVAC', ( #164, #201 ), #124 ) ;
#10 = AXIS2_PLACEMENT_3D ( 'NONE', #225, #184, #156 ) ;
#11 = ORIENTED_EDGE ( 'NONE', *, *, #74, .F. ) ;
#12 = ORIENTED_EDGE ( 'NONE', *, *, #129, .F. ) ;
#13 = MECHANICAL_DESIGN_GEOMETRIC_PRESENTATION_REPRESENTATION (  '', ( #55 ), #59 ) ;
#14 = DIRECTION ( 'NONE',  ( 1.000000000000000000, -0.0000000000000000000, -0.0000000000000000000 ) ) ;
#15 = CARTESIAN_POINT ( 'NONE',  ( -3.039719767661806400, 0.0000000000000000000, 0.0000000000000000000 ) ) ;
#16 = FACE_OUTER_BOUND ( 'NONE', #35, .T. ) ;
#17 = VERTEX_POINT ( 'NONE', #112 ) ;
#18 = EDGE_LOOP ( 'NONE', ( #25 ) ) ;
#19 = CARTESIAN_POINT ( 'NONE',  ( -10.20000000000001500, 0.0000000000000000000, 0.0000000000000000000 ) ) ;
#20 = AXIS2_PLACEMENT_3D ( 'NONE', #19, #221, #147 ) ;
#21 = CARTESIAN_POINT ( 'NONE',  ( -8.199999999999999300, 0.0000000000000000000, 0.0000000000000000000 ) ) ;
#22 = DIRECTION ( 'NONE',  ( 0.0000000000000000000, 0.0000000000000000000, 1.000000000000000000 ) ) ;
#23 = FACE_BOUND ( 'NONE', #211, .T. ) ;
#24 = DIRECTION ( 'NONE',  ( -1.000000000000000000, 0.0000000000000000000, 0.0000000000000000000 ) ) ;
#25 = ORIENTED_EDGE ( 'NONE', *, *, #222, .T. ) ;
#26 = FACE_OUTER_BOUND ( 'NONE', #126, .T. ) ;
#27 = DIRECTION ( 'NONE',  ( 0.0000000000000000000, 0.0000000000000000000, 1.000000000000000000 ) ) ;
#28 = DIRECTION ( 'NONE',  ( 0.0000000000000000000, 0.0000000000000000000, 1.000000000000000000 ) ) ;
#29 = CARTESIAN_POINT ( 'NONE',  ( 0.0000000000000000000, 0.0000000000000000000, 0.0000000000000000000 ) ) ;
#30 = VERTEX_POINT ( 'NONE', #69 ) ;
#31 = ORIENTED_EDGE ( 'NONE', *, *, #7, .F. ) ;
#32 = PRODUCT_RELATED_PRODUCT_CATEGORY ( 'part', '', ( #241 ) ) ;
#33 = CARTESIAN_POINT ( 'NONE',  ( -12.10000000000000300, 0.0000000000000000000, 14.99999999999999800 ) ) ;
#34 = AXIS2_PLACEMENT_3D ( 'NONE', #275, #110, #27 ) ;
#35 = EDGE_LOOP ( 'NONE', ( #177 ) ) ;
#36 = FACE_OUTER_BOUND ( 'NONE', #167, .T. ) ;
#37 = CIRCLE ( 'NONE', #111, 19.85176380902011700 ) ;
#38 = VERTEX_POINT ( 'NONE', #132 ) ;
#39 = EDGE_LOOP ( 'NONE', ( #216 ) ) ;
#40 = AXIS2_PLACEMENT_3D ( 'NONE', #150, #286, #197 ) ;
#41 = UNCERTAINTY_MEASURE_WITH_UNIT (LENGTH_MEASURE( 1.000000000000000100E-005 ), #278, 'distance_accuracy_value', 'NONE');
#42 = ADVANCED_FACE ( 'NONE', ( #238, #258 ), #252, .T. ) ;
#43 = DIRECTION ( 'NONE',  ( -1.000000000000000000, 0.0000000000000000000, 0.0000000000000000000 ) ) ;
#44 = EDGE_CURVE ( 'NONE', #172, #172, #224, .T. ) ;
#45 = DIRECTION ( 'NONE',  ( -1.000000000000000000, 0.0000000000000000000, 0.0000000000000000000 ) ) ;
#46 = DIRECTION ( 'NONE',  ( 1.000000000000000000, -0.0000000000000000000, -0.0000000000000000000 ) ) ;
#47 = CARTESIAN_POINT ( 'NONE',  ( 0.0000000000000000000, 0.0000000000000000000, 0.0000000000000000000 ) ) ;
#48 = CIRCLE ( 'NONE', #250, 20.00000000000000000 ) ;
#49 = EDGE_CURVE ( 'NONE', #248, #248, #152, .T. ) ;
#50 = DIRECTION ( 'NONE',  ( 0.0000000000000000000, 0.0000000000000000000, 1.000000000000000000 ) ) ;
#51 = DIRECTION ( 'NONE',  ( -1.000000000000000000, 0.0000000000000000000, 0.0000000000000000000 ) ) ;
#52 = DIRECTION ( 'NONE',  ( 0.0000000000000000000, 0.0000000000000000000, 1.000000000000000000 ) ) ;
#53 = CYLINDRICAL_SURFACE ( 'NONE', #95, 17.00000000000000000 ) ;
#54 = SURFACE_SIDE_STYLE ('',( #85 ) ) ;
#55 = STYLED_ITEM ( 'NONE', ( #96 ), #164 ) ;
#56 = CARTESIAN_POINT ( 'NONE',  ( -40.00000000000000000, 0.0000000000000000000, 15.00000000000000000 ) ) ;
#57 = FACE_BOUND ( 'NONE', #215, .T. ) ;
#58 = ORIENTED_EDGE ( 'NONE', *, *, #7, .T. ) ;
#59 =( GEOMETRIC_REPRESENTATION_CONTEXT ( 3 ) GLOBAL_UNCERTAINTY_ASSIGNED_CONTEXT ( ( #93 ) ) GLOBAL_UNIT_ASSIGNED_CONTEXT ( ( #145, #109, #270 ) ) REPRESENTATION_CONTEXT ( 'NONE', 'WORKASPACE' ) );
#60 = ORIENTED_EDGE ( 'NONE', *, *, #222, .F. ) ;
#61 = CYLINDRICAL_SURFACE ( 'NONE', #79, 13.10000000000000000 ) ;
#62 = AXIS2_PLACEMENT_3D ( 'NONE', #157, #3, #90 ) ;
#63 = DIRECTION ( 'NONE',  ( 0.0000000000000000000, 0.0000000000000000000, -1.000000000000000000 ) ) ;
#64 = COLOUR_RGB ( '',0.6470588235294118000, 0.6196078431372549200, 0.5882352941176470800 ) ;
#65 = EDGE_LOOP ( 'NONE', ( #209 ) ) ;
#66 = CARTESIAN_POINT ( 'NONE',  ( -4.071796769715797700, 0.0000000000000000000, 0.0000000000000000000 ) ) ;
#67 = DIRECTION ( 'NONE',  ( 0.0000000000000000000, 0.0000000000000000000, 1.000000000000000000 ) ) ;
#68 = DIRECTION ( 'NONE',  ( -0.0000000000000000000, 0.0000000000000000000, -1.000000000000000000 ) ) ;
#69 = CARTESIAN_POINT ( 'NONE',  ( -8.199999999999999300, 0.0000000000000000000, 16.99999999999999600 ) ) ;
#70 =( NAMED_UNIT ( * ) PLANE_ANGLE_UNIT ( ) SI_UNIT ( $, .RADIAN. ) );
#71 = DIRECTION ( 'NONE',  ( 1.000000000000000000, 0.0000000000000000000, 0.0000000000000000000 ) ) ;
#72 = AXIS2_PLACEMENT_3D ( 'NONE', #292, #24, #52 ) ;
#73 = VERTEX_POINT ( 'NONE', #114 ) ;
#74 = EDGE_CURVE ( 'NONE', #282, #282, #37, .T. ) ;
#75 = EDGE_LOOP ( 'NONE', ( #226 ) ) ;
#76 = ORIENTED_EDGE ( 'NONE', *, *, #44, .T. ) ;
#77 = DIRECTION ( 'NONE',  ( -1.000000000000000000, 0.0000000000000000000, 0.0000000000000000000 ) ) ;
#78 = DIRECTION ( 'NONE',  ( -1.000000000000000000, 0.0000000000000000000, 0.0000000000000000000 ) ) ;
#79 = AXIS2_PLACEMENT_3D ( 'NONE', #266, #51, #28 ) ;
#80 = ORIENTED_EDGE ( 'NONE', *, *, #255, .F. ) ;
#81 = DIRECTION ( 'NONE',  ( 0.0000000000000000000, 0.0000000000000000000, 1.000000000000000000 ) ) ;
#82 = ADVANCED_FACE ( 'NONE', ( #23, #158 ), #165, .T. ) ;
#83 = CARTESIAN_POINT ( 'NONE',  ( -2.846534602403887800, 0.0000000000000000000, 0.0000000000000000000 ) ) ;
#84 = CARTESIAN_POINT ( 'NONE',  ( -2.846534602403887800, 0.0000000000000000000, 0.0000000000000000000 ) ) ;
#85 = SURFACE_STYLE_FILL_AREA ( #92 ) ;
#86 = FACE_BOUND ( 'NONE', #39, .T. ) ;
#87 = CARTESIAN_POINT ( 'NONE',  ( 0.0000000000000000000, 0.0000000000000000000, 0.0000000000000000000 ) ) ;
#88 = DIRECTION ( 'NONE',  ( -1.000000000000000000, 0.0000000000000000000, 0.0000000000000000000 ) ) ;
#89 = FACE_OUTER_BOUND ( 'NONE', #75, .T. ) ;
#90 = DIRECTION ( 'NONE',  ( 0.0000000000000000000, 0.0000000000000000000, 1.000000000000000000 ) ) ;
#91 = ORIENTED_EDGE ( 'NONE', *, *, #214, .F. ) ;
#92 = FILL_AREA_STYLE ('',( #131 ) ) ;
#93 = UNCERTAINTY_MEASURE_WITH_UNIT (LENGTH_MEASURE( 1.000000000000000100E-005 ), #145, 'distance_accuracy_value', 'NONE');
#94 = PRODUCT_CONTEXT ( 'NONE', #5, 'mechanical' ) ;
#95 = AXIS2_PLACEMENT_3D ( 'NONE', #183, #88, #246 ) ;
#96 = PRESENTATION_STYLE_ASSIGNMENT (( #269 ) ) ;
#97 = APPLICATION_PROTOCOL_DEFINITION ( 'draft international standard', 'automotive_design', 1998, #5 ) ;
#98 = VERTEX_POINT ( 'NONE', #228 ) ;
#99 = AXIS2_PLACEMENT_3D ( 'NONE', #207, #154, #202 ) ;
#100 = PRODUCT_DEFINITION_CONTEXT ( 'detailed design', #186, 'design' ) ;
#101 = CYLINDRICAL_SURFACE ( 'NONE', #34, 15.00000000000000000 ) ;
#102 = EDGE_CURVE ( 'NONE', #73, #73, #247, .T. ) ;
#103 = DIRECTION ( 'NONE',  ( -1.000000000000000000, 0.0000000000000000000, 0.0000000000000000000 ) ) ;
#104 = EDGE_LOOP ( 'NONE', ( #133 ) ) ;
#105 = PLANE ( 'NONE',  #168 ) ;
#106 = FACE_OUTER_BOUND ( 'NONE', #283, .T. ) ;
#107 = ADVANCED_FACE ( 'NONE', ( #16, #256 ), #105, .T. ) ;
#108 = TOROIDAL_SURFACE ( 'NONE', #40, 16.19999999999999600, 0.2000000000000000100 ) ;
#109 =( NAMED_UNIT ( * ) PLANE_ANGLE_UNIT ( ) SI_UNIT ( $, .RADIAN. ) );
#110 = DIRECTION ( 'NONE',  ( -1.000000000000000000, 0.0000000000000000000, 0.0000000000000000000 ) ) ;
#111 = AXIS2_PLACEMENT_3D ( 'NONE', #15, #103, #193 ) ;
#112 = CARTESIAN_POINT ( 'NONE',  ( 0.0000000000000000000, 0.0000000000000000000, 13.10000000000000000 ) ) ;
#113 = EDGE_LOOP ( 'NONE', ( #204 ) ) ;
#114 = CARTESIAN_POINT ( 'NONE',  ( -4.225262167311912600, 0.0000000000000000000, 15.99999999999999600 ) ) ;
#115 = AXIS2_PLACEMENT_3D ( 'NONE', #47, #123, #50 ) ;
#116 = CARTESIAN_POINT ( 'NONE',  ( -4.225262167311912600, 0.0000000000000000000, 0.0000000000000000000 ) ) ;
#117 = AXIS2_PLACEMENT_3D ( 'NONE', #83, #272, #1 ) ;
#118 = DIRECTION ( 'NONE',  ( -1.000000000000000000, 0.0000000000000000000, 0.0000000000000000000 ) ) ;
#119 = CARTESIAN_POINT ( 'NONE',  ( -4.032077002053998000, 0.0000000000000000000, 0.0000000000000000000 ) ) ;
#120 = DIRECTION ( 'NONE',  ( 0.0000000000000000000, 0.0000000000000000000, 1.000000000000000000 ) ) ;
#121 = PRESENTATION_LAYER_ASSIGNMENT (  '', '', ( #191 ) ) ;
#122 = COLOUR_RGB ( '',0.6470588235294118000, 0.6196078431372549200, 0.5882352941176470800 ) ;
#123 = DIRECTION ( 'NONE',  ( -1.000000000000000000, 0.0000000000000000000, 0.0000000000000000000 ) ) ;
#124 =( GEOMETRIC_REPRESENTATION_CONTEXT ( 3 ) GLOBAL_UNCERTAINTY_ASSIGNED_CONTEXT ( ( #290 ) ) GLOBAL_UNIT_ASSIGNED_CONTEXT ( ( #279, #70, #229 ) ) REPRESENTATION_CONTEXT ( 'NONE', 'WORKASPACE' ) );
#125 = DIRECTION ( 'NONE',  ( -1.000000000000000000, 0.0000000000000000000, 0.0000000000000000000 ) ) ;
#126 = EDGE_LOOP ( 'NONE', ( #288 ) ) ;
#127 = FACE_OUTER_BOUND ( 'NONE', #137, .T. ) ;
#128 =( NAMED_UNIT ( * ) PLANE_ANGLE_UNIT ( ) SI_UNIT ( $, .RADIAN. ) );
#129 = EDGE_CURVE ( 'NONE', #220, #220, #196, .T. ) ;
#130 = CIRCLE ( 'NONE', #153, 16.14823619097988300 ) ;
#131 = FILL_AREA_STYLE_COLOUR ( '', #64 ) ;
#132 = CARTESIAN_POINT ( 'NONE',  ( -2.846534602403887800, 0.0000000000000000000, -20.00000000000000000 ) ) ;
#133 = ORIENTED_EDGE ( 'NONE', *, *, #227, .F. ) ;
#134 = CIRCLE ( 'NONE', #138, 16.99999999999999600 ) ;
#135 = SHAPE_DEFINITION_REPRESENTATION ( #267, #9 ) ;
#136 = ORIENTED_EDGE ( 'NONE', *, *, #235, .F. ) ;
#137 = EDGE_LOOP ( 'NONE', ( #257 ) ) ;
#138 = AXIS2_PLACEMENT_3D ( 'NONE', #180, #203, #67 ) ;
#139 = EDGE_LOOP ( 'NONE', ( #80 ) ) ;
#140 = PRODUCT_DEFINITION ( 'UNKNOWN', '', #244, #100 ) ;
#141 = PRESENTATION_STYLE_ASSIGNMENT (( #249 ) ) ;
#142 = ORIENTED_EDGE ( 'NONE', *, *, #273, .F. ) ;
#143 = CIRCLE ( 'NONE', #72, 20.00000000000000000 ) ;
#144 = AXIS2_PLACEMENT_3D ( 'NONE', #174, #45, #262 ) ;
#145 =( LENGTH_UNIT ( ) NAMED_UNIT ( * ) SI_UNIT ( .MILLI., .METRE. ) );
#146 = FACE_OUTER_BOUND ( 'NONE', #2, .T. ) ;
#147 = DIRECTION ( 'NONE',  ( 0.0000000000000000000, 0.0000000000000000000, 1.000000000000000000 ) ) ;
#148 = FACE_OUTER_BOUND ( 'NONE', #260, .T. ) ;
#149 = EDGE_LOOP ( 'NONE', ( #212 ) ) ;
#150 = CARTESIAN_POINT ( 'NONE',  ( -4.225262167311912600, 0.0000000000000000000, 0.0000000000000000000 ) ) ;
#151 = ADVANCED_FACE ( 'NONE', ( #146, #89 ), #108, .F. ) ;
#152 = CIRCLE ( 'NONE', #20, 13.10000000000000000 ) ;
#153 = AXIS2_PLACEMENT_3D ( 'NONE', #119, #218, #171 ) ;
#154 = DIRECTION ( 'NONE',  ( -1.000000000000000000, 0.0000000000000000000, 0.0000000000000000000 ) ) ;
#155 = FACE_OUTER_BOUND ( 'NONE', #113, .T. ) ;
#156 = DIRECTION ( 'NONE',  ( 0.0000000000000000000, 0.0000000000000000000, 1.000000000000000000 ) ) ;
#157 = CARTESIAN_POINT ( 'NONE',  ( -7.200000000000002800, 0.0000000000000000000, 0.0000000000000000000 ) ) ;
#158 = FACE_OUTER_BOUND ( 'NONE', #166, .T. ) ;
#159 = DIRECTION ( 'NONE',  ( 0.0000000000000000000, 0.0000000000000000000, -1.000000000000000000 ) ) ;
#160 = AXIS2_PLACEMENT_3D ( 'NONE', #223, #78, #240 ) ;
#161 = APPLICATION_PROTOCOL_DEFINITION ( 'draft international standard', 'automotive_design', 1998, #186 ) ;
#162 =( NAMED_UNIT ( * ) SI_UNIT ( $, .STERADIAN. ) SOLID_ANGLE_UNIT ( ) );
#163 = TOROIDAL_SURFACE ( 'NONE', #117, 19.80000000000000100, 0.2000000000000000100 ) ;
#164 = MANIFOLD_SOLID_BREP ( 'Congé1', #190 ) ;
#165 = CONICAL_SURFACE ( 'NONE', #182, 15.99999999999999600, 1.308996938997775600 ) ;
#166 = EDGE_LOOP ( 'NONE', ( #234 ) ) ;
#167 = EDGE_LOOP ( 'NONE', ( #170 ) ) ;
#168 = AXIS2_PLACEMENT_3D ( 'NONE', #200, #118, #173 ) ;
#169 = CIRCLE ( 'NONE', #175, 13.10000000000000000 ) ;
#170 = ORIENTED_EDGE ( 'NONE', *, *, #235, .T. ) ;
#171 = DIRECTION ( 'NONE',  ( 0.0000000000000000000, 0.0000000000000000000, -1.000000000000000000 ) ) ;
#172 = VERTEX_POINT ( 'NONE', #33 ) ;
#173 = DIRECTION ( 'NONE',  ( 0.0000000000000000000, 0.0000000000000000000, 1.000000000000000000 ) ) ;
#174 = CARTESIAN_POINT ( 'NONE',  ( -12.10000000000000300, 0.0000000000000000000, 0.0000000000000000000 ) ) ;
#175 = AXIS2_PLACEMENT_3D ( 'NONE', #274, #125, #22 ) ;
#176 = FILL_AREA_STYLE ('',( #264 ) ) ;
#177 = ORIENTED_EDGE ( 'NONE', *, *, #214, .T. ) ;
#178 = DIRECTION ( 'NONE',  ( -1.000000000000000000, 0.0000000000000000000, 0.0000000000000000000 ) ) ;
#179 = ADVANCED_FACE ( 'NONE', ( #181, #280 ), #61, .F. ) ;
#180 = CARTESIAN_POINT ( 'NONE',  ( -8.199999999999999300, 0.0000000000000000000, 0.0000000000000000000 ) ) ;
#181 = FACE_OUTER_BOUND ( 'NONE', #265, .T. ) ;
#182 = AXIS2_PLACEMENT_3D ( 'NONE', #66, #14, #63 ) ;
#183 = CARTESIAN_POINT ( 'NONE',  ( 0.0000000000000000000, 0.0000000000000000000, 0.0000000000000000000 ) ) ;
#184 = DIRECTION ( 'NONE',  ( -1.000000000000000000, 0.0000000000000000000, 0.0000000000000000000 ) ) ;
#185 = ORIENTED_EDGE ( 'NONE', *, *, #49, .T. ) ;
#186 = APPLICATION_CONTEXT ( 'automotive_design' ) ;
#187 = MECHANICAL_DESIGN_GEOMETRIC_PRESENTATION_REPRESENTATION (  '', ( #191 ), #4 ) ;
#188 = VERTEX_POINT ( 'NONE', #230 ) ;
#189 = AXIS2_PLACEMENT_3D ( 'NONE', #245, #206, #68 ) ;
#190 = CLOSED_SHELL ( 'NONE', ( #284, #285, #179, #239, #195, #107, #287, #42, #263, #82, #151, #242 ) ) ;
#191 = STYLED_ITEM ( 'NONE', ( #141 ), #9 ) ;
#192 = EDGE_LOOP ( 'NONE', ( #12 ) ) ;
#193 = DIRECTION ( 'NONE',  ( 0.0000000000000000000, 0.0000000000000000000, 1.000000000000000000 ) ) ;
#194 = FACE_OUTER_BOUND ( 'NONE', #199, .T. ) ;
#195 = ADVANCED_FACE ( 'NONE', ( #26, #271 ), #101, .F. ) ;
#196 = CIRCLE ( 'NONE', #160, 15.00000000000000000 ) ;
#197 = DIRECTION ( 'NONE',  ( 0.0000000000000000000, 0.0000000000000000000, 1.000000000000000000 ) ) ;
#198 = VERTEX_POINT ( 'NONE', #210 ) ;
#199 = EDGE_LOOP ( 'NONE', ( #136 ) ) ;
#200 = CARTESIAN_POINT ( 'NONE',  ( -40.00000000000000000, 15.00000000000000000, 0.0000000000000000000 ) ) ;
#201 = AXIS2_PLACEMENT_3D ( 'NONE', #29, #208, #71 ) ;
#202 = DIRECTION ( 'NONE',  ( 0.0000000000000000000, 0.0000000000000000000, 1.000000000000000000 ) ) ;
#203 = DIRECTION ( 'NONE',  ( -1.000000000000000000, 0.0000000000000000000, 0.0000000000000000000 ) ) ;
#204 = ORIENTED_EDGE ( 'NONE', *, *, #255, .T. ) ;
#205 = CONICAL_SURFACE ( 'NONE', #99, 13.10000000000000000, 0.7853981633974510500 ) ;
#206 = DIRECTION ( 'NONE',  ( 1.000000000000000000, 0.0000000000000000000, -0.0000000000000000000 ) ) ;
#207 = CARTESIAN_POINT ( 'NONE',  ( -10.20000000000001500, 0.0000000000000000000, 0.0000000000000000000 ) ) ;
#208 = DIRECTION ( 'NONE',  ( 0.0000000000000000000, 0.0000000000000000000, 1.000000000000000000 ) ) ;
#209 = ORIENTED_EDGE ( 'NONE', *, *, #227, .T. ) ;
#210 = CARTESIAN_POINT ( 'NONE',  ( -4.032077002053998000, 0.0000000000000000000, -16.14823619097988300 ) ) ;
#211 = EDGE_LOOP ( 'NONE', ( #58 ) ) ;
#212 = ORIENTED_EDGE ( 'NONE', *, *, #44, .F. ) ;
#213 = CIRCLE ( 'NONE', #62, 15.99999999999999600 ) ;
#214 = EDGE_CURVE ( 'NONE', #98, #98, #289, .T. ) ;
#215 = EDGE_LOOP ( 'NONE', ( #236 ) ) ;
#216 = ORIENTED_EDGE ( 'NONE', *, *, #49, .F. ) ;
#217 = FACE_OUTER_BOUND ( 'NONE', #231, .T. ) ;
#218 = DIRECTION ( 'NONE',  ( 1.000000000000000000, -0.0000000000000000000, -0.0000000000000000000 ) ) ;
#219 = DIRECTION ( 'NONE',  ( 0.0000000000000000000, 0.0000000000000000000, 1.000000000000000000 ) ) ;
#220 = VERTEX_POINT ( 'NONE', #56 ) ;
#221 = DIRECTION ( 'NONE',  ( -1.000000000000000000, 0.0000000000000000000, 0.0000000000000000000 ) ) ;
#222 = EDGE_CURVE ( 'NONE', #276, #276, #213, .T. ) ;
#223 = CARTESIAN_POINT ( 'NONE',  ( -40.00000000000000000, 0.0000000000000000000, 0.0000000000000000000 ) ) ;
#224 = CIRCLE ( 'NONE', #144, 14.99999999999999800 ) ;
#225 = CARTESIAN_POINT ( 'NONE',  ( -40.00000000000000000, 0.0000000000000000000, 0.0000000000000000000 ) ) ;
#226 = ORIENTED_EDGE ( 'NONE', *, *, #102, .F. ) ;
#227 = EDGE_CURVE ( 'NONE', #188, #188, #143, .T. ) ;
#228 = CARTESIAN_POINT ( 'NONE',  ( -40.00000000000000000, 0.0000000000000000000, 17.00000000000000000 ) ) ;
#229 =( NAMED_UNIT ( * ) SI_UNIT ( $, .STERADIAN. ) SOLID_ANGLE_UNIT ( ) );
#230 = CARTESIAN_POINT ( 'NONE',  ( -2.168404344971008100E-015, 0.0000000000000000000, 20.00000000000000000 ) ) ;
#231 = EDGE_LOOP ( 'NONE', ( #11 ) ) ;
#232 = CYLINDRICAL_SURFACE ( 'NONE', #268, 15.99999999999999600 ) ;
#233 = AXIS2_PLACEMENT_3D ( 'NONE', #21, #77, #81 ) ;
#234 = ORIENTED_EDGE ( 'NONE', *, *, #74, .T. ) ;
#235 = EDGE_CURVE ( 'NONE', #38, #38, #48, .T. ) ;
#236 = ORIENTED_EDGE ( 'NONE', *, *, #273, .T. ) ;
#237 = FACE_OUTER_BOUND ( 'NONE', #253, .T. ) ;
#238 = FACE_BOUND ( 'NONE', #18, .T. ) ;
#239 = ADVANCED_FACE ( 'NONE', ( #106, #86 ), #205, .F. ) ;
#240 = DIRECTION ( 'NONE',  ( 0.0000000000000000000, 0.0000000000000000000, 1.000000000000000000 ) ) ;
#241 = PRODUCT ( 'BT1KF253440FULLVAC', 'BT1KF253440FULLVAC', '', ( #94 ) ) ;
#242 = ADVANCED_FACE ( 'NONE', ( #194, #217 ), #163, .T. ) ;
#243 = SURFACE_SIDE_STYLE ('',( #293 ) ) ;
#244 = PRODUCT_DEFINITION_FORMATION_WITH_SPECIFIED_SOURCE ( 'ANY', '', #241, .NOT_KNOWN. ) ;
#245 = CARTESIAN_POINT ( 'NONE',  ( -1.084202172485504000E-015, 20.00000000000000000, 0.0000000000000000000 ) ) ;
#246 = DIRECTION ( 'NONE',  ( 0.0000000000000000000, 0.0000000000000000000, 1.000000000000000000 ) ) ;
#247 = CIRCLE ( 'NONE', #291, 15.99999999999999600 ) ;
#248 = VERTEX_POINT ( 'NONE', #6 ) ;
#249 = SURFACE_STYLE_USAGE ( .BOTH. , #54 ) ;
#250 = AXIS2_PLACEMENT_3D ( 'NONE', #84, #46, #159 ) ;
#251 = CARTESIAN_POINT ( 'NONE',  ( -3.039719767661806400, 0.0000000000000000000, 19.85176380902011700 ) ) ;
#252 = CONICAL_SURFACE ( 'NONE', #233, 16.99999999999999600, 0.7853981633974505000 ) ;
#253 = EDGE_LOOP ( 'NONE', ( #60 ) ) ;
#254 = CYLINDRICAL_SURFACE ( 'NONE', #115, 20.00000000000000000 ) ;
#255 = EDGE_CURVE ( 'NONE', #30, #30, #134, .T. ) ;
#256 = FACE_BOUND ( 'NONE', #192, .T. ) ;
#257 = ORIENTED_EDGE ( 'NONE', *, *, #102, .T. ) ;
#258 = FACE_OUTER_BOUND ( 'NONE', #139, .T. ) ;
#259 = PRESENTATION_LAYER_ASSIGNMENT (  '', '', ( #55 ) ) ;
#260 = EDGE_LOOP ( 'NONE', ( #91 ) ) ;
#261 = FACE_OUTER_BOUND ( 'NONE', #65, .T. ) ;
#262 = DIRECTION ( 'NONE',  ( 0.0000000000000000000, 0.0000000000000000000, 1.000000000000000000 ) ) ;
#263 = ADVANCED_FACE ( 'NONE', ( #127, #237 ), #232, .T. ) ;
#264 = FILL_AREA_STYLE_COLOUR ( '', #122 ) ;
#265 = EDGE_LOOP ( 'NONE', ( #185 ) ) ;
#266 = CARTESIAN_POINT ( 'NONE',  ( 0.0000000000000000000, 0.0000000000000000000, 0.0000000000000000000 ) ) ;
#267 = PRODUCT_DEFINITION_SHAPE ( 'NONE', 'NONE',  #140 ) ;
#268 = AXIS2_PLACEMENT_3D ( 'NONE', #87, #178, #120 ) ;
#269 = SURFACE_STYLE_USAGE ( .BOTH. , #243 ) ;
#270 =( NAMED_UNIT ( * ) SI_UNIT ( $, .STERADIAN. ) SOLID_ANGLE_UNIT ( ) );
#271 = FACE_OUTER_BOUND ( 'NONE', #149, .T. ) ;
#272 = DIRECTION ( 'NONE',  ( 1.000000000000000000, -0.0000000000000000000, -0.0000000000000000000 ) ) ;
#273 = EDGE_CURVE ( 'NONE', #17, #17, #169, .T. ) ;
#274 = CARTESIAN_POINT ( 'NONE',  ( 0.0000000000000000000, 0.0000000000000000000, 0.0000000000000000000 ) ) ;
#275 = CARTESIAN_POINT ( 'NONE',  ( 0.0000000000000000000, 0.0000000000000000000, 0.0000000000000000000 ) ) ;
#276 = VERTEX_POINT ( 'NONE', #8 ) ;
#277 = EDGE_LOOP ( 'NONE', ( #142 ) ) ;
#278 =( LENGTH_UNIT ( ) NAMED_UNIT ( * ) SI_UNIT ( .MILLI., .METRE. ) );
#279 =( LENGTH_UNIT ( ) NAMED_UNIT ( * ) SI_UNIT ( .MILLI., .METRE. ) );
#280 = FACE_OUTER_BOUND ( 'NONE', #277, .T. ) ;
#281 = FACE_OUTER_BOUND ( 'NONE', #104, .T. ) ;
#282 = VERTEX_POINT ( 'NONE', #251 ) ;
#283 = EDGE_LOOP ( 'NONE', ( #76 ) ) ;
#284 = ADVANCED_FACE ( 'NONE', ( #36, #261 ), #254, .T. ) ;
#285 = ADVANCED_FACE ( 'NONE', ( #57, #281 ), #294, .T. ) ;
#286 = DIRECTION ( 'NONE',  ( -1.000000000000000000, 0.0000000000000000000, 0.0000000000000000000 ) ) ;
#287 = ADVANCED_FACE ( 'NONE', ( #155, #148 ), #53, .T. ) ;
#288 = ORIENTED_EDGE ( 'NONE', *, *, #129, .T. ) ;
#289 = CIRCLE ( 'NONE', #10, 17.00000000000000000 ) ;
#290 = UNCERTAINTY_MEASURE_WITH_UNIT (LENGTH_MEASURE( 1.000000000000000100E-005 ), #279, 'distance_accuracy_value', 'NONE');
#291 = AXIS2_PLACEMENT_3D ( 'NONE', #116, #43, #219 ) ;
#292 = CARTESIAN_POINT ( 'NONE',  ( -2.168404344971008100E-015, 0.0000000000000000000, 0.0000000000000000000 ) ) ;
#293 = SURFACE_STYLE_FILL_AREA ( #176 ) ;
#294 = PLANE ( 'NONE',  #189 ) ;
ENDSEC;
END-ISO-10303-21;
